Oops, an error
Loading. Please wait.

Californication Tab

636,407 views 663 this week
9 commentsread comments
1 2 3 4 5
accurate
x 35
Autoscroll
+/-
esc
set tempo
stop
WARNING: You are trying to view
                                    content from Ultimate-Guitar.com
                                    in an unauthorized application,
                                    which is prohibited.

                                    Please use an official Ultimate
                                    Guitar Tabs application for iPhone,
                                    iPad or Android to access legitimate
                                    chords, guitar, bass, and drum tabs
                                    from Ultimate-Guitar.com database.

                                    Type "ultimate guitar tabs" in Apple
                                    App Store's or Android Market's
                                    search to find the application.
this is a greatRed Hot Chili Peppers album ,
i just don't know what else to say about it.
Around the world

Tabbed by ravi lande


INTRO (6x)

E--/12-12--/12--12--/12--12--12--12--12----|
B--/12-12--/12--12--/12--12--12--12--12----|
G--/9--9---/9---9---/9---9---9---9---9-----|
D------------------------------------------|
A------------------------------------------|
E------------------------------------------|


VERSE (10x)

E-------------------------------|
B-------------------------------|
G-------------------------------|
D--0-3-5-3-5-3-5---0-3-5-3-5----|
A-------------------------------|
E-------------------------------|


CHORUS

Guitar doesn't play for most of the chorus.
In the end John plays this

E-----------------------------------------------------|
B------------------4---------------------6--4---------|
G--5---5--3--5--5-----5--3h5----3--5--5--------3h5----|
D-----------------------------------------------------|
A-----------------------------------------------------|
E-----------------------------------------------------|


Play the Intro 4 times, and then play this bit 4 times.

E--12--12-12--12-12-12--12-12-12----|
B--12--12-12--12-12-12--12-12-12----|
G---9---9--9---9--9--9---9--9--9----|
D-----------------------------------|
A-----------------------------------|
E-----------------------------------|


END
   Dm  Em        Dm  Em            Dm  Em        Dm  Em
E--13--15--17----13--15--17--20----13--15--17----13--15--17\----|
B--10--12--15----10--12--15--20----10--12--15----10--12--15\----|
G--10--12--15----10--12--15--20----10--12--15----10--12--15\----|
D---------------------------------------------------------------|
A---------------------------------------------------------------|
E---------------------------------------------------------------|

****************************************************************************

Parallel Universe Tab by Red Hot Chili Peppers,

~~~~~~~~~~~~~~~~~~~~~~~~~~~~~~~~~~~~~~~~~~~~
Red Hot Chili Peppers - Parallel Universe
Album: Californication

~~~~~~~~~~~~~~~~~~~~~~~~~~~~~~~~~~~~~~~~~~~~

Tuning: Standard (ebgdae)

Judging by the tabs that have alreayd been posted here, people can't seem to diffrentiate
between the bass and the guitar of this song. The riffs posted up already are actually
what the bass plays, not the guitar. Here is what i hope is the correct version. It should be
fine cos i checked it against the Californication tab book. Enjoy!

P.S The new RHCP album, By The Way, is cool! Has anyone got a tab
for "On Mercury" yet? If so please email it to me, id be very grateful!

INTRO PART ONE: (Palm muted, this is the bit before the bass kicks in)

e------------------|
b------------------|
g-7-7-7-7-7-7-7-7--|
d------------------|
a------------------|
e------------------|

INTRO PART TWO:

e--------------------------------------------------------------------------|
b--------------------------------------------------------------------------|
g-8-8-8-8-8-8-8-8--7-7-7-7-7-7-7-7--------------------5-5-5-5--4-4-4-4-----|
d-----------------------------------3-3-3-3--5-5-5-5-----------------------|
a--------------------------------------------------------------------------|
e--------------------------------------------------------------------------|

VERSE:

e--------------------------------------------------------------------------|
b--------------------------------------------------------------------------|
g-8-8-8-8-8-8-8-8--7-7-7-7-7-7-7-7--------------------5-5-5-5---4-4-4-4----|
d-----------------------------------3-3-3-3--5-5-5-5-----------------------|
a--------------------------------------------------------------------------|
e--------------------------------------------------------------------------|


e--------------------------------------------------------------6-6--7-7----|
b-----------------------------------6-6-6-6--8-8-8-8-----------------------|
g-8-8-8-8-8-8-8-8--7-7-7-7-7-7-7-7--------------------5-5-5-5--------------|
d--------------------------------------------------------------------------|
a--------------------------------------------------------------------------|
e--------------------------------------------------------------------------|

CHORUS:

e------------------------------------------------------------------------------------------|
b------------------------------------------------------------------------------------------|
g--5-5-5-5-------8-8-----------------------5-5-5-5-------8-8-------------------------------|
d--5-5-5-5--6-6--8-8--5-5-5-5-5-5-5-5-5-5--5-5-5-5--6-6--8-8--5-5-5-5-5-5-5-5--------------|
a--3-3-3-3--6-6--6-6--5-5-5-5-5-5-5-5-5-5--3-3-3-3--6-6--6-6--5-5-5-5-5-5-5-5--------------|
e-----------4-4-------3-3-3-3-3-3-3-3-3-3-----------4-4-------3-3-3-3-3-3-3-3--------------|

INTERLUDE: (bass plays a quick C-G-Ab-F on repeat, guitar comes in on every second time)

e-----------------------------------------------------------------------------|
b-----------------------------------------------------------------------------|
g--8-8-8--------------------------------8-8-8---------------------------------|
d---------8-8-8--------------------------------8-8-8--------------------------|
a----------------10-10-------------------------------10-10--------------------|
e-----------------------8-8-8-8-8-8-8-8---------------------8-8-8-8-8-8-8-8---|

MODIFIED VERSE:

e----------------------------------------------------------------------------|
b----------------------------------------------------------------------------|
g-8-8-8-8-8-8-8-8--7-7-7-7-7-7-7-7--------------------5-5-5-5--4-4-4-4-------|
d-----------------------------------3-3-3-3--5-5-5-5-------------------------|
a----------------------------------------------------------------------------|
e----------------------------------------------------------------------------|

e--------------------------------------------------------------6-6--7-7------|
b----------------------------------------------------------------------------|
g-----------------------------------2-2-2-2--3-3-3-3--7-7-7-7----------------|
d-5-5-5-5-5-5-5-5--3-3-3-3-3-3-3-3-------------------------------------------|
a----------------------------------------------------------------------------|
e----------------------------------------------------------------------------|

OUTRO: This is a bit weird, its basically just a load of notes and John screwing about
with a phase shifter. You're probably better off just doing your own thing here, but this is
what i think it is

e---------------------------------------------------------------------------------------------|
b----------------------------6----------------------------------------------------------------|
g--5-x-x-5----8-----------7-----7----2-----5-----4-----5----3----2----5----4------------------|
d------------10----------------------3-----6-----5-----5----3----3----6----5------------------|
a------------------------------------------------------3----1----5----6----5--etc--etc--------|
e---------------------------------------------------------------------------------------------|

SONG ORDER:

INTRO PART ONE (X1)
INTRO PART TWO (X1)
VERSE (X1)
CHORUS (X1)
VERSE (X1)
CHORUS (X2)
INTERLUDE (X2)
MODIFIED VERSE (X1)
CHORUS (X2)
OUTRO (god knows)
****************************************************************************
Scar Tissue Tab by Red Hot Chili Peppers,

Red Hot Chili Peppers

Scar Tissue


Song: Scar Tissue
Band: Red Hot Chili Peppers
Album: Californication
Record Label: WEA/Warner Bros.


Introduction:

e|-----5----5-5---5-------------------------------|
B|--------------------5--5/6---6---6-6----6\5-----|
G|------------------------------------------------|
D|--3----3------3---------------------------------|
A|--------------------3--3/5-----5-----5--5\3--3--|
E|------------------------------------------------|


e|-----5----5-5---5--3----------------------------|
B|-----------------------5--5/6---8h6--8h6--------|
G|------------------------------------------------|
D|--3----3------3---------------------------------|
A|-----------------------3--3/5-------------------|
E|------------------------------------------------|


First verse:

e|-----5----5-5---5--------------------------------|
B|--------------------5--5/6---6----6-6----6\5-----|
G|-------------------------------------------------|
D|--3----3------3----------------------------------|
A|--------------------3--3/5-----5------5--5\3--3--|
E|-------------------------------------------------|


e|-----5----5-5----8-------------------5--3--------|
B|---------------------5--5/6---6------------6--5--|
G|-------------------------------------------------|
D|--3----3------3----------------------------------|
A|---------------------3--3/5-----5----------------|
E|-------------------------------------------------|


Chorus: Repeat 2 Times.
	6x	    1x     6x    1x
e|---1--------0------1-----0------|
B|---1--------1------3-----1------|
G|---2--------0------2-----0------|
D|---3---------------0------------|
A|---3----------------------------|
E|--------------------------------|


Second Verse:

e|--------------------------------------------------------------|
B|-----10----10-10----10----------------------------------------|
G|-------------------------9--9/10---10-----10-10------10\9-----|
D|--------------------------------------------------------------|
A|--8-----8--------8--------------------------------------------|
E|-------------------------8--8/10------10---------10--10\9--8--|


e|---------------------10--8---------------------13--12--10--8--|
B|-----10----10-10----------------------------------------------|
G|------------------------------9--9/10--10---------------------|
D|--------------------------------------------------------------|
A|--8-----8--------8--------------------------------------------|
E|------------------------------8--8/10-----10---13--12--10--8--|


Chorus: Repeat 2 Times.
	6x	    1x     6x    1x
e|---1--------0------1-----0------|
B|---1--------1------3-----1------|
G|---2--------0------2-----0------|
D|---3---------------0------------|
A|---3----------------------------|
E|--------------------------------|


Slide Solo One  (Guitar 2 Strum Chords In Background)

e|--13\10-10****10\8-8----8/10-10----10/12----12/13-13-----|
B|---------------------------------------------------------|
G|---------------------------------------------------------|
D|---------------------------------------------------------|
A|---------------------------------------------------------|
E|---------------------------------------------------------|

Third Verse:

e|-------------------------------------------------------------------|
B|-----10----10-10----10---------------------------------------------|
G|-------------------------9--9/10---10-----10-10------10\9/10\9-----|
D|-------------------------------------------------------------------|
A|--8-----8--------8-------------------------------------------------|
E|-------------------------8--8/10------10---------10--10\9/10\9--8--|


e|-----5----5-5----8-------------------------------|
B|---------------------5--5/6---6-----12-13-12-10--|
G|-------------------------------------------------|
D|--3----3------3----------------------------------|
A|---------------------3--3/5-----5----------------|
E|-------------------------------------------------|


Chorus: Repeat 2 Times.
	6x	    1x     6x    1x
e|---1--------0------1-----0------|
B|---1--------1------3-----1------|
G|---2--------0------2-----0------|
D|---3---------------0------------|
A|---3----------------------------|
E|--------------------------------|


Fourth Verse:

e|-----5----5-5---5-------------------------------|
B|--------------------5--5/6---6---6-6----6\5-----|
G|------------------------------------------------|
D|--3----3------3---------------------------------|
A|--------------------3--3/5-----5-----5--5\3--3--|
E|------------------------------------------------|


e|-----5----5-5----8-------------------12--10----------|
B|---------------------5--5/6---6--------------13--12--|
G|-----------------------------------------------------|
D|--3----3------3--------------------------------------|
A|---------------------3--3/5-----5--------------------|
E|-----------------------------------------------------|


Chorus: Repeat 2 Times.
	6x	    1x     6x    1x
e|---1--------0------1-----0------|
B|---1--------1------3-----1------|
G|---2--------0------2-----0------|
D|---3---------------0------------|
A|---3----------------------------|
E|--------------------------------|


Slide Solo Two (Rhythm Guitar Playing in Background)

e|--15--15--13--10--10\8-8--13\10-10--15--17--|
B|--------------------------------------------|
G|--------------------------------------------|
D|--------------------------------------------|
A|--------------------------------------------|
E|--------------------------------------------|


e|--13\10-10--10\8-8--13\10-10--15/17--17/18-18--|
B|-----------------------------------------------|
G|-----------------------------------------------|
D|-----------------------------------------------|
A|-----------------------------------------------|
E|-----------------------------------------------|


Fifth Verse:

e|-----5----5-5---5----------------------------|
B|--------------------5--5/6---6---6-6----6\5--|
G|---------------------------------------------|
D|--3----3------3------------------------------|
A|--------------------3--3/5-----5-----5--5\3--|
E|---------------------------------------------|


e|--5-5/6----5----5-5----8-------------------5--3--------|
B|---------------------------5--5/6---6------------6--5--|
G|-------------------------------------------------------|
D|--3-3/4------3------3----------------------------------|
A|---------------------------3--3/5-----5----------------|
E|-------------------------------------------------------|

Chorus: Repeat 2 Times.
	6x	    1x     6x    1x
e|---1--------0------1-----0------|
B|---1--------1------3-----1------|
G|---2--------0------2-----0------|
D|---3---------------0------------|
A|---3----------------------------|
E|--------------------------------|


Slide Solo Three (Rhythm Guitar Playing in Background)

e|--17--17\15-15--17\12-12--15\10-10--|
B|------------------------------------|
G|------------------------------------|
D|------------------------------------|
A|------------------------------------|
E|------------------------------------|


e|--8/10--10\8--8/10-10--10\8\5--5/8-8--8\5-5--|
B|---------------------------------------------|
G|---------------------------------------------|
D|---------------------------------------------|
A|---------------------------------------------|
E|---------------------------------------------|

e|----------5-5-5-5---------------------------|
B|--3/5\3------------3/5\3--3/5\1-1-----------|
G|-----------------------------------5/7\2-2--|
D|--------------------------------------------|
A|--------------------------------------------|
E|--------------------------------------------|


e|---5-5--13\12-12--8/10\5-5--5/8\3/5~~~~~~~~--|
B|---------------------------------------------|
G|---------------------------------------------|
D|---------------------------------------------|
A|---------------------------------------------|
E|---------------------------------------------|




For The First Solo, The Following Chords Are Strummed In The Background.

Repeat 2 Times.
    6x	    1x     6x    1x
e|---1--------0------1-----0------|
B|---1--------1------3-----1------|
G|---2--------0------2-----0------|
D|---3---------------0------------|
A|---3----------------------------|
E|--------------------------------|


For Solo's Two & Three A Rhythm Guitar Plays The Following In The Background.

e|-----------------------------------|
B|-----------------------------------|
G|----7----7------7----7---7------7--|
D|-----------------------------------|
A|--5---5----5--5----5---5---5--5----|
E|-----------------------------------|


e|---------------------------------------------------|
B|---------------------------------------------------|
G|---5-----5---5----5-----5---5-----7----7---7-------|
D|---------------------------------------------------|
A|-3---3----3-3---3----3---3-3--3/5---5---5-5--------|
E|---------------------------------------------------|


e|---------------------------------|
B|---------------------------------|
G|-------7---7-----9---9--9/10-----|
D|---------------------------------|
A|-----5---5---5/7---7----7/8------|
E|---------------------------------|





Lyrics: Scar Tissue

Scar tissue that I wish you saw
Sarcastic mister know it all
Ah close your eyes and I'll kiss you 'cause
With the birds I'll share
With the birds I'll share
This lonely view
With the birds I'll share
This lonely view and...

Ah push me up against the wall
Young Kentucky girl in a push-up bra
Ah fall-in' all over myself
To lick your heart and taste your health 'cause
With the birds I'll share
This lonely view...

Blood loss in a bathroom stall
Southern girl with a scarlet drawl
Wave good-bye to ma and pa 'cause
With the birds I'll share
With the birds I'll share
This lonely view
With the birds I'll share
This lonely view

Soft spoken with a broken jaw
Step outside but not to brawl
Autumn's sweet we call it fall
I'll make it to the moon if I have to crawl and
With the birds I'll share
This lonely view...

Scar tissue that I wish you saw
Sarcastic mister know it all
Ah close your eyes and I'll kiss you cause
With the birds I'll share
With the birds I'll share
This lonely view
With the birds I'll share
This lonely view...
****************************************************************************

Otherside

This is the right tab!

Intro:

------------------------------------|
------------------------------------|
------------------------------------|
---------7-7-9-7--------------------|
---7-7-7---------10-7---5-5-5-------|
------------------------------------|

------------------------------------|
------------------------------------|
------------------------------------|
---------7-7-9-7--------------------|
---7-7-7---------10-7-7-7-7--5-5-5--|
------------------------------------|

------------------------------------|
------------------------------------|
------------------------------------|
---------7-7-9-7--------------------|
---7-7-7---------10-7-7-7-7--5-5-5--|
------------------------------------|

------------------------------------|
------------------------------------|
-------------9-9--------------------|
---------7-7-----9-9----------------|
---7-7-7----------------------------|
------------------------------------|

------------------15----------------|   x3 Then...
----13----12------------------------|
------------------------------------|
------------------------------------|   When you do this part
------------------------------------|   you do it like this:
------------------------------------|
                                         1st part:x3
                                         2nd part:x1
-----3------------------5-----------|     1st part:x3
-----3------------------5-----------|     2nd part:x3
-----4------------------6-----------|
-----5------------------7-----------|   listen to the song
-----5------------------7-----------|   and youll know what
-----3------------------5-----------|   im talkin about


------------------------------------|
------------------------------------|
------------------------------------|
---------7-7-9-7--------------------|
---7-7-7---------10-7-7-7-7--5-5-5--|
------------------------------------|


------------------------------------|
------------------------------------|
------------------------------------|
---------7-7-9-7--------------------|
---7-7-7---------10-7-7-7-7--5-5-5--|
------------------------------------|


------------------------------------|
------------------------------------|
-------------9-9-9-9----12-12-12-12-|
---------7-7------------------------|
---7-7-7----------------------------|
------------------------------------|


------------------15----------------|   1. x3
----13----12------------------------|   3. x3
------------------------------------|
------------------------------------|
------------------------------------|
------------------------------------|


-----3------------------5-----------|
-----3------------------5-----------|   2. x1
-----4------------------6-----------|   4. x3
-----5------------------7-----------|
-----5------------------7-----------|


------------------------------------|
------------------------------------|
------------------------------------|
---------7-7-9-7--------------------|
---7-7-7---------10-7-7-7-7--5-5-5--|
------------------------------------|


------------------------------------|
------------------------------------|
------------------------------------|
---------7-7-9-7--------------------|
---7-7-7---------10-7-7-7-7--5-5-5--|
------------------------------------|


------------------------------------|
------------------------------------|
-------------9-9-9-9----12-12-12-12-|
---------7-7------------------------|
---7-7-7----------------------------|
------------------------------------|


------------------15----------------|   1. x3
----13----12------------------------|   3. x3
------------------------------------|
------------------------------------|
------------------------------------|
------------------------------------|


-----3------------------5-----------|
-----3------------------5-----------|   2. x1
-----4------------------6-----------|   4. x3
-----5------------------7-----------|
-----5------------------7-----------|


Solo: (Harmonics with distortion)

----12-12-12------------------------|  x4
-------------12-12-12---------------|
------------------------------------|
------------------------------------|
------------------------------------|
------------------------------------|

just distortion now

--------------------12-12-12-12-12-12-12h15-|
10-10-10-10-10-10-10------------------------|
--------------------------------------------|
--------------------------------------------|
--------------------------------------------|
--------------------------------------------|

--12-12-12-12-12-12-12h15-12-12-12h15-12-12-12h15-|
--------------------------------------------------|
--------------------------------------------------|
--------------------------------------------------|
--------------------------------------------------|
--------------------------------------------------|

After the solo just keep repeating 12-12-12h15 till
the song ends. I know this is right.
****************************************************************************

Get On Top Tab by Red Hot Chili Peppers,

--------------------------------------------------------------------------
			     Red Hot Chili Peppers - Get On Top
--------------------------------------------------------------------------

Tuning: standard (low to high - eadgbe)
Intro/Verse...w/ distorted wah wah pedal
e|---------------------------------------------------|
B|---------------------------------------------------|
G|---------------------------------------------------|
D|--------5-----------5------------5-----------5-----|
A|-7-----------7-----------7------------7------------|
E|---------------------------------------------------|
Just put in the wah-wah timing yourself....its very
straight forward, just a few wahs to each note.
Repeat this riff Until the chorus.

Chorus...Clean
e|-------------------------------------------------|
B|-------------------------------------------------|
G|--2-2-5-5------0-2-5-5------2-2-5-5------0-2-5-5-|
D|-------------------------------------------------|
A|-------------------------------------------------|
E|-------------------------------------------------|
("Complications of a Mastermind")
Play this 4 and a half times, then play:

End of Chorus...clean
e|-5--5--5--5---|
B|-5--5--5--5---|
G|-4--4--4--4---|
D|-2--2--2--2---|
A|--------------|
E|--------------|

Now the Intro/Verse Again

And Now the Chorus Again

Interlude...Guitar 1: w/ clean wah wah
e|5----3----5----3-------3-----3----5--0--5--7-------------------|
B|6----1----6----1----3--1--3--1----6--1--6--8--10--13--1--333---|
G|7----0----7----0----3--0--3--0----7--2--7--9--10--12--2--444---|
D|7----2----7----2----3--2--3--2----7--2--7--9--10--12--2--444---|
A|5----3----5----3----1--3--1--3---*5--0--5--7--8---10--0--222---|
E|---------------------------------------------------------------|
* = solo starts here
(Timing is a bit hard to work out, but just listen carefully)
And now the second guitar's solo that goes on top of those chords.
The Solo starts when the 1st guitar reaches its ninth chord (marked with a *)
Guitar 2: w/ an overdrive effect
e|--------------------5-8-5----8---10/12-8-8/10---12---13--15--12--141414---|
B|-5/10-8-6-6/8-----6-------------------------------------------------------|
G|--------------------------------------------------------------------------|
D|--------------------------------------------------------------------------|
A|--------------------------------------------------------------------------|
E|--------------------------------------------------------------------------|

Now just repeat the Intro/Verse until the End.


Thats it!Enjoy.
****************************************************************************

Californication Tab by Red Hot Chili Peppers,

Red Hot Chili Peppers Californication

/ - Slide Up
\ - Slide Down
X - Scratch
H - hammer on
~ - Vibrato
p - Pull Off
^ - Bend Up
^( ) - Bend Up Then Back Down To Original Note

Main Riff, (0:00-0:29)
e]---------------------------------------------|
B]--------0--1---------------------------------|
G]--------------0-0h2p0-----------0--2---------|
D]-----2--------------------------------0------| X6
A]--0-------------------------3-----------3----|
E]-------------------------1-------------------|

Verse Riff A, (0:30-0:35)
e]----------------------------------------------1-|
B]--------5----------------------------------3--3-|
G]--------------------4-----------2-------------2-|
D]-----5-----5-----------5---------------0------0-|
A]--3--------------5-----------3------3-----------|
E]--------------3-----------1---------------------|

Main Riff, (0:36-0:55)
e]---------------------------------------------|
B]--------0--1---------------------------------|
G]--------------0-0h2p0-----------0--2---------|
D]-----2--------------------------------0------| X4
A]--0-------------------------3-----------3----|
E]-------------------------1-------------------|

Verse Riff B, (0:56-1:00)
e]----------------------------------------------1-|
B]--------5-------------------------------------3-|
G]--------------------4-----------2-------------2-|
D]-----5-----5-----------5---------------0--------|
A]--3--------------5-----------3------3-----------|
E]--------------3-----------1---------------------|

Verse Chords, (1:01-1:30) Play 6 Times.
e]-0--0-0-0--0-0-0-0-0--0--0-0--0--0-0-0--0-0-0-0-0--0--0-0-|
B]-1--1-1-1--1-1-1-1-1--1--1-1--1--1-1-1--1-1-1-1-1--1--1-1-|
G]-2--2-2-2--2-2-2-2-2--2--2-2--2--2-2-2--2-2-2-2-2--2--2-2-|
D]-2--2-2-2--2-2-2-2-2--2--2-2--3--3-3-3--3-3-3-3-3--3--3-3-|
A]-0--0-0-0--0-0-0-0-0--0--0-0--3--3-3-3--3-3-3-3-3--3--3-3-|
E]------------------------------1--1-1-1--1-1-1-1-1--1--1-1-|

Chorus A, (1:30-1:39) Play 1 Time.
e]-3--3-3-3--3-3-1---1--0-0-0---0--0---3---3-3---1---0-|
B]-1--1-1-1--1-1-0---0--6-6-6---1--1---1---1-1---0---6-|
G]-0--0-0-0--0-0-0---0--5-5-5---2--2---0---0-0---0---5-|
D]-2--2-2-2--2-2-0---0--0-0-0---2--2---2---2-2---0---0-|
A]-3--3-3-3--3-3-2---2----------0--0---3---3-3---2-----|
E]---------------3---3---------------------------3-----|


Main Riff, (1:40-1:59)
e]---------------------------------------------|
B]--------0--1---------------------------------|
G]--------------0-0h2p0-----------0--2---------|
D]-----2--------------------------------0------| X4
A]--0-------------------------3-----------3----|
E]-------------------------1-------------------|

Verse Riff A, (2:00-2:05)
e]----------------------------------------------1-|
B]--------5----------------------------------3--3-|
G]--------------------4-----------2-------------2-|
D]-----5-----5-----------5---------------0------0-|
A]--3--------------5-----------3------3-----------|
E]--------------3-----------1---------------------|

Main Riff, (2:05-2:24)
e]---------------------------------------------|
B]--------0--1---------------------------------|
G]--------------0-0h2p0-----------0--2---------|
D]-----2--------------------------------0------| X4
A]--0-------------------------3-----------3----|
E]-------------------------1-------------------|

Verse Riff B, (2:25-2:29)
e]----------------------------------------------1-|
B]--------5-------------------------------------3-|
G]--------------------4-----------2-------------2-|
D]-----5-----5-----------5---------------0--------|
A]--3--------------5-----------3------3-----------|
E]--------------3-----------1---------------------|

Verse Chords, (2:30-2:59)
e]-0--0-0-0--0-0-0-0-0--0--0-0--0--0-0-0--0-0-0-0-0--0--0-0-|
B]-1--1-1-1--1-1-1-1-1--1--1-1--1--1-1-1--1-1-1-1-1--1--1-1-|
G]-2--2-2-2--2-2-2-2-2--2--2-2--2--2-2-2--2-2-2-2-2--2--2-2-|
D]-2--2-2-2--2-2-2-2-2--2--2-2--3--3-3-3--3-3-3-3-3--3--3-3-| X6
A]-0--0-0-0--0-0-0-0-0--0--0-0--3--3-3-3--3-3-3-3-3--3--3-3-|
E]------------------------------1--1-1-1--1-1-1-1-1--1--1-1-|

Chorus A
e]-3--3-3-3--3-3-1---1--0-0-0---0--0---3---3-3---1---0-|
B]-1--1-1-1--1-1-0---0--6-6-6---1--1---1---1-1---0---6-|
G]-0--0-0-0--0-0-0---0--5-5-5---2--2---0---0-0---0---5-|
D]-2--2-2-2--2-2-0---0--0-0-0---2--2---2---2-2---0---0-|
A]-3--3-3-3--3-3-2---2----------0--0---3---3-3---2-----|
E]---------------3---3---------------------------3-----|

Chorus B, (2:59-3:18)
e]-3---3---1--1---1--1--0-0----3---3---1----0------|
B]-1---1---0--0---3--3--1-1----1---1---0----6------|
G]-0---0---0--0---2--2--2-2----0---0---0----5------|
D]-2---2---0--0---0--0--2-2----2---2---0----0------|
A]-3---3---2--2---------0-0----3---3---2-----------|
E]---------3--3------------------------3-----------|


Solo, (3:19-3:59)
e]-------9---------------------9---------------------------|
B]--10--------------------10-------------------------------|
G]-----------11^(11)--------------11^(11)~~--11-11-11-11p9-|
D]---------------------------------------------------------|
A]---------------------------------------------------------|
E]---------------------------------------------------------|

e]---------------------------------------9---12---14~~~~~--|
B]----------------------------------10~~-------------------|
G]---------------9--11^(11)-9------------------------------|
D]-11-11----9-11--------------11~~-------------------------|
A]---------------------------------------------------------|
E]---------------------------------------------------------|

e]------9---12---14^---14~~~~~--17---16---14-------14------|
B]-10~~----------------------------------------17-------17-|
G]---------------------------------------------------------|
D]---------------------------------------------------------|
A]---------------------------------------------------------|
E]---------------------------------------------------------|

e]-------------------------------------------14^(14)-12----|
B]-14---17---14---14----14----14---17---14-\------------14-|
G]----------------16^---16^---16^--------------------------|
D]---------------------------------------------------------|
A]---------------------------------------------------------|
E]---------------------------------------------------------|

e]-12~~----------------12----10----9--------|
B]------14---12---10--------------------10--|
G]------------------------------------------|
D]------------------------------------------|
A]------------------------------------------|
E]------------------------------------------|


Main Riff, (3:59-4:18)
e]---------------------------------------------|
B]--------0--1---------------------------------|
G]--------------0-0h2p0-----------0--2---------|
D]-----2--------------------------------0------| X4
A]--0-------------------------3-----------3----|
E]-------------------------1-------------------|

Verse Riff B, (4:19-4:23)
e]----------------------------------------------1-|
B]--------5-------------------------------------3-|
G]--------------------4-----------2-------------2-|
D]-----5-----5-----------5---------------0--------|
A]--3--------------5-----------3------3-----------|
E]--------------3-----------1---------------------|

Verse Chords, (4:24-4:52)
e]-0--0-0-0--0-0-0-0-0--0--0-0--0--0-0-0--0-0-0-0-0--0--0-0-|
B]-1--1-1-1--1-1-1-1-1--1--1-1--1--1-1-1--1-1-1-1-1--1--1-1-|
G]-2--2-2-2--2-2-2-2-2--2--2-2--2--2-2-2--2-2-2-2-2--2--2-2-|
D]-2--2-2-2--2-2-2-2-2--2--2-2--3--3-3-3--3-3-3-3-3--3--3-3-| X6
A]-0--0-0-0--0-0-0-0-0--0--0-0--3--3-3-3--3-3-3-3-3--3--3-3-|
E]------------------------------1--1-1-1--1-1-1-1-1--1--1-1-|

Chorus A
e]-3--3-3-3--3-3-1---1--0-0-0---0--0---3---3-3---1---0-|
B]-1--1-1-1--1-1-0---0--6-6-6---1--1---1---1-1---0---6-|
G]-0--0-0-0--0-0-0---0--5-5-5---2--2---0---0-0---0---5-|
D]-2--2-2-2--2-2-0---0--0-0-0---2--2---2---2-2---0---0-|
A]-3--3-3-3--3-3-2---2----------0--0---3---3-3---2-----|
E]---------------3---3---------------------------3-----|

Chorus C, (4:53-5:11)
e]-3---3---1--3-1----1---------------3--3-3-3---1-1---0---|
B]-1---1---0--0-3----3---1---1--1-1--1--1-1-1---0-0---6---|
G]-0---0---0---------2---2---2--2-2--0--0-0-0---0-0---5---|
D]-2---2---0---------0---2---2--2-2--2--2-2-2---0-0-0-0---|
A]-3---3---2-------------0---0--0-0--3--3-3-3---2-2-0-----|
E]---------3------------------------------------3-3-------|
****************************************************************************
Easily Tab by Red Hot Chili Peppers,

Red Hot Chili Peppers
Easily
Hi!
Cool song!


Intro
E------------------------------------------------------------------------------|
B--------------------------------------------1--1-1-1--1-----------------------|
G--2--2-2-2--2-2^-0---2--2-2-2-2--2p0--0-0---2--2-2-2--2--0-0--2--2--2-2-2-----|
D--2--2-2-2--2--------0--0-0-0-0-------0-0---3--3-3-3--3--0-0--2--2--2-2-2-----|
A--0--0-0-0--0-------------------------------------------------0--0--0-0-0-----|
E------------------------------------------------------------------------------|


Chords

("Easily let's get carried away...")
E-----------------------------------|
B--------3-----1--0-----------------|
G--2-----2-----2--0-----------------|
D--2-----0-----3--0-----------------|
A--0--------------------------------|
E-----------------------------------|

("The story of a woman...")
E-----------------------------------------------------------|
B--5--5-5-5---3-3-3---1-1-1-----5--5-5-5---3-3-3---1-1-1----|
G--5--5-5-5---4-4-4---2-2-2-----5--5-5-5---4-4-4---2-2-2----|
D--5--5-5-5---5-5-5---3-3-3-----5--5-5-5---5-5-5---3-3-3----|
A-----------------------------------------------------------|
E-----------------------------------------------------------|

("Calling calling for something in the air...")
E-----------------------------------------------------------|
B--1--1-1-1---3-3-3---1-1-1-----1--1-1-1---3-3-3---1-1-1----|
G--2--2-2-2---4-4-4---2-2-2-----2--2-2-2---4-4-4---2-2-2----|
D--2--2-2-2---5-5-5---3-3-3-----2--2-2-2---5-5-5---3-3-3----|
A-----------------------------------------------------------|
E-----------------------------------------------------------|


Solo 1
E--------------------------------------------------|
B--17---15--17b20r17--15----13---15-12b13----------|
G--------------------------------------------------|
D--------------------------------------------------|
A--------------------------------------------------|
E--------------------------------------------------|

E--------------------------------------------------|
B--13---12-13b15r13----15b17---17r15---12-12b13----|
G--------------------------------------------------|
D--------------------------------------------------|
A--------------------------------------------------|
E--------------------------------------------------|


Solo 2 (Final)

Guitar 1 (repeat as many times as necessary) (2:58)
E--15---13-12-13-12-----------12--------15---13-12-13-12-----------12--------|
B---------------------13--12------13-----------------------13--12------13----|
G----------------------------------------------------------------------------|
D----------------------------------------------------------------------------|
A----------------------------------------------------------------------------|
E----------------------------------------------------------------------------|

E--17---15-12-15--12-----15--12----17---15-12-15--12-----15--12--------------|
B---------------------15------------------------------15---------------------|
G----------------------------------------------------------------------------|
D----------------------------------------------------------------------------|
A----------------------------------------------------------------------------|
E----------------------------------------------------------------------------|


Guitar 2 (3:06)
E----------------------------------------------------15-12-------|
B-----------------------------13--15b17r15--13-------------------|
G--------------------9/14----------------------------------------|
D--5/7-----------------------------------------------------------|
A----------------------------------------------------------------|
E----------------------------------------------------------------|

E----------------------------------------------------------------|
B--15b17--17r15--13-12-13----------------------------------------|
G-----------------------------\9-----7/9--12-9-12-9---9b10-------|
D----------------------------------------------------------10----|
A----------------------------------------------------------------|
E----------------------------------------------------------------|

E----------------------------------------------------------------|
B----------------------------------------------------------------|
G------------------12p9------------------------------------------|
D--12b14r12--10-------------5b7r5b7------------------------------|
A----------------------------------------------------------------|
E----------------------------------------------------------------|


Guitar 3 (3:09)
E-------------------------------------------------------------|
B-------------------------------------------------------------|
G--12p9-9---7h9-9b12r9--9------7---\5-5----7b9-----4--5--5----|
D-------------------------------------------------------------|
A-------------------------------------------------------------|
E-------------------------------------------------------------|

E-------------------------------------------------------------|
B--10b12r10---------------------------------------------------|
G------------12-9---12p9------7h9---------------9-------------|
D-----------------------------------10--10--10-----10---------|
A-------------------------------------------------------------|
E-------------------------------------------------------------|

E-------------------------------------------------------------|
B-------------------------------------------------------------|
G-------------------------------------------------------------|
D--5-----3------\--2--------5--3--2---------------------------|
A------------------------------------3------------------------|
E-----------------------------------------3/5----5/8----------|


Guitar 4 (3:13)
E---------------------------------------15-15-12-15--12-----------|
B--10b13r10----15b17r15--13--12-13--------------------------------|
G-----------------------------------------------------------------|
D-----------------------------------------------------------------|
A-----------------------------------------------------------------|
E-----------------------------------------------------------------|

E--20--20--20--20--20-----20--20--19--17----19--17--15--17--12----|
B-----------------------------------------------------------------|
G-----------------------------------------------------------------|
D-----------------------------------------------------------------|
A-----------------------------------------------------------------|
E-----------------------------------------------------------------|

E--15--12h15-15b17------------15----------------------------------|
B-------------------------15------13-----13-----------------------|
G-----------------------------------------------------------------|
D-----------------------------------------------------------------|
A-----------------------------------------------------------------|
E-----------------------------------------------------------------|


Hope you enjoy it!
****************************************************************************
Porcelain Tab by Red Hot Chili Peppers,
artist: Red Hot Chili Peppers

SongTitle: Porcelain

Tabs: Red Hot Chili Peppers
Porcelain from Californication


(0:10)
E----------------------------------------|
B----------------------------------------|
G--6/--2--4/6--(2)--6/--(2)----2---------|
D----------------------------2-----------|
A----------------------------------------|
E----------------------------------------|

(0:31)
E--2--2--2--4--5--0---------------------|
B--------------------2------------------|
G-----------------------4/--6-----------|
D---------------------------------------|
A---------------------------------------|
E---------------------------------------|

(0:41)
E--2--2--2--4--5--7--5--4--2--4--5--0----|
B--------------------------------------2-|
G----------------------------------------|
D----------------------------------------|
A----------------------------------------|
E----------------------------------------|

(0:51)
E---------------------------------------|
B---------------------------------------|
G--4/--6\--2--4------2------------------|
D---------------------------------------|
A---------------------------------------|
E---------------------------------------|

(1:01)
E---------------------------------------|
B---------------------------------------|
G--4/--6\--2----------------------------|
D---------------------------------------|
A---------------------------------------|
E---------------------------------------|

(1:06)
E---------------------------------------|
B--5--5--5--5--5--5--5--5--5--5--5--5---|(triplets)
G---------------------------------------|
D---------------------------------------|
A---------------------------------------|
E---------------------------------------|

(1:11)
E---------------------------------------|
B---------------------------------------|
G--6--4/--6----2------------------------|
D-------------------(4)-----------------|
A---------------------------------------|
E---------------------------------------|

(1:31)
E--2--2--2--4--5--0---------------------|
B--------------------2------------------|
G-----------------------4/--6-----------|
D---------------------------------------|
A---------------------------------------|
E---------------------------------------|

(1:41)
E--2--2--2--4--5--7--5--4--2--4--5--0----|
B--------------------------------------2-|
G----------------------------------------|
D----------------------------------------|
A----------------------------------------|
E----------------------------------------|

(1:51)
E---------------------------------------|
B-------------5--2-----7--3-----5--2----|
G--4/--6\--2--------2--------2--------2-|
D---------------------------------------|
A---------------------------------------|
E---------------------------------------|

(2:01)
E---------------------------------------|
B---------------------------------------|
G--4/--6\--2----------------------------|
D---------------------------------------|
A---------------------------------------|
E---------------------------------------|

(2:06)
E---------------------------------------|
B-5--5--5--5--5--5--5--5--5--5--5--5----|
G---------------------------------------|
D---------------------------------------|
A---------------------------------------|
E---------------------------------------|

(2:12)
E---------------------------5-----------|
B------------------7--3--------5--------|
G--4/--6\--2--(4)--------2--------2-----|
D---------------------------------------|
A---------------------------------------|
E---------------------------------------|

(2:22)
E---------------------------------------|
B---------------------------------------|
G--4/--6\--2----------------------------|
D---------------------------------------|
A---------------------------------------|
E---------------------------------------|

(2:27)
E---------------------------------------|
B--5--5--5--5--5--5--5--5--5--5--5--5---|
G---------------------------------------|
D---------------------------------------|
A---------------------------------------|
E---------------------------------------|

(2:32)
E---------------------------------------|
B---------------------------------------|
G--6(b)---------------------------------|
D---------------------------------------|
A---------------------------------------|
E---------------------------------------|

Hope this is at least slightly accurate, later yo!
****************************************************************************

Emit Remmus Tab by Red Hot Chili Peppers,

W/distortion.

Riff 1 (allow as much feedback as possible, and bend with whammy bar)
e-----------------------|-----------------------|
b--11~~~~~~~~~~~~~~~~~~-|-9~~~~~~~~~~~~~~~~~~~~-|
g-----------------------|-----------------------|
d-----------------------|-----------------------|
a-----------------------|-----------------------|
e-----------------------|-----------------------|

Riff 2
e------------------------------------------------------------|
b------------------------------------------------------13\\--|
g--8--10-10-10--13-13------------8--10-10-10--13--13---13\\--|
d--8--10-10-10-/13-13--x-x--x-x--8--10-10-10-/13--13---13\\--|
a--6--8--8--8--/11-11--x-x--x-x--6--8--8--8--/11--11---------|
e------------------------------------------------------------|

e---------------------------------------------------------------------------|
b------------------------------------------------------13-13-13-13-13-13-13-|
g--8--10-10-10--13-13------------8--10-10-10--13--13---13-13-13-13-13-13-13-|
d--8--10-10-10-/13-13--x-x--x-x--8--10-10-10-/13--13---13-13-13-13-13-13-13-|
a--6--8--8--8--/11-11--x-x--x-x--6--8--8--8--/11--11------------------------|
e---------------------------------------------------------------------------|

Riff 1 (with variations)
e-------------10--------|-----------------------|
b--11~~~~~~~~----11~~~~-|-9~~~~~~~~~~~~~~~~~~~~-|
g-----------------------|-----------------------|
d-----------------------|-----------------------|
a-----------------------|-----------------------|
e-----------------------|-----------------------|

Riff 3
e-------------------------------------------------------------------|
b-------------------------------------------------------------------|
g-------------------------------------------------------------------|
d--1--1--1--1-1------------------------------------3-3-3--3--3-3----|
a--3--3--3--3-3-0--3--3--3--3-3-0--5--5--5--5-5-0--3-3-3--3--3-3-0--|
e--3--3--3--3-3-0--4--4--4--4-4-0--6--6--6--6-6-0--1-1-1--1--1-1-0--|

e--------------------------------------------------------------------------|
b-------------------------------------------------13-13-13-13-13-13-13-13--|
g-------------------------------------------------13-13-13-13-13-13-13-13--|
d--1--1--1--1-1-----------------------------------13-13-13-13-13-13-13-13--|
a--3--3--3--3-3-0--3--3--3--3-3-0--5--5--5--5-5-0--------------------------|
e--3--3--3--3-3-0--4--4--4--4-4-0--6--6--6--6-6-0--------------------------|

solo riff- use same notes as riff 1, but just fuck around with feedback
and whammy bends.
****************************************************************************


I Like Dirt Tab by Red Hot Chili Peppers, www.Ultimate-Guitar.Com

-----------------------------------------------------------------------------
                   RED HOT CHILI PEPPERS - I LIKE DIRT
-----------------------------------------------------------------------------

tuning: Standard

The other version of this song is pretty accurate, but I think my solo works
better. Judge for yourself:
                                   p.m. p.m.
e--5--7----5--7----5--7----5--7----9-9-9-9-9--|
B--5--7----5--7----5--7----5--7---------------|
G--5--7----5--7----5--7----5--7---------------|
D---------------------------------------------|
A---------------------------------------------|
E---------------------------------------------|

Verse
e--x-x-7-7-x-x-7-x-7-x-7^---x-x-7-7-x-x-7-x-7-x-7^---|
B--x-x-7-7-x-x-7-x-7-x-7^---x-x-7-7-x-x-7-x-7-x-7^---|
G--x-x-7-7-x-x-7-x-7-x-7^---x-x-7-7-x-x-7-x-7-x-7^---|
D----------------------------------------------------|
A----------------------------------------------------|
E----------------------------------------------------|

Chorus
e-7-7-7--x--7-7-7--x--7-7-7--x--7-7-7---------------------------------------|
B-7-7-7--x--7-7-7--x--7-7-7--x--7-7-7---------------------------------------|
G-7-7-7--x--7-7-7--x--7-7-7--x--7-7-7----7-------7-----------7-------7------|
D-------------------------------------------9-9-----9-9-x-x-----9-9-----9-9-|
A---------------------------------------------------------------------------|
E---------------------------------------------------------------------------|
                                          p.m.    p.m.    p.m.    p.m.  p.m.

Interlude
e----------------------------|
B----------------------------|
G--8-------------------------|
D-----8--10------------------|  x 3
A------------8--10--6--8-----|
E-------------------------8--|

e--------------------------------|
B--/8----------------------------|
G------8--10---------------------|
D-------------8--10--------------| 4th time
A--------------------8--10--6~---|
E--------------------------------|

Repeat Verse

Repeat Chorus

Solo (Wah pedal w/ Dostortion)
e----------------------------------------------------------------|
B----------------------------------------------------------------|
G--------------------------------------------------7--9^--9^^^---|
D----------------5^----5^----7^-7-5--7p5-7p5--7/9----------------|
A-------5/7--7^-----7--------------------------------------------|
E--5/7-----------------------------------------------------------|

e---------------------------------------------------------------------|
B------------------------7^--7h10p7----7h10p7--------------7h10p7-----|
G---------------7^------------------9----------9--7h9p7-9----------9--|
D--7--9^-x----------9-------------------------------------------------|
A---------------------------------------------------------------------|
E---------------------------------------------------------------------|

e----------------------------10^---------------------------------13^-13-12--|
B--7h10p7h10----------12^--------12-10/12--------------------12-------------|
G-------------9-7^------------------------------9^--9p7---------------------|
D---------------------------------------------------------------------------|
A---------------------------------------------------------------------------|
E---------------------------------------------------------------------------|

e--14--17^------------------------------------------------------------------|
B----------17p15---10h12-12-10h12p10--(just mess around; picks scrapes,etc.)|
G---------------------------------------------------------------------------|
D---------------------------------------------------------------------------|
A---------------------------------------------------------------------------|
E---------------------------------------------------------------------------|

Outro
e--x-x-7-7-x-x-7-x-7-x-7^--x-x-7-7-x-x-7-x-7-x-7^^~---|
B--x-x-7-7-x-x-7-x-7-x-7^--x-x-7-7-x-x-7-x-7-x-7^^~---|
G--x-x-7-7-x-x-7-x-7-x-7^--x-x-7-7-x-x-7-x-7-x-7^^~---| x 2
D-----------------------------------------------------|
A-----------------------------------------------------|
E-----------------------------------------------------|
****************************************************************************

This Velvet Glove Tab by Red Hot Chili Peppers,
Californication

Intro
repeat first part
---------------------------------------------------------------|
---------------------------------------------------------------|
-------------------------------------12-10-9-------------------|
----10--12---10--12---------------------------10--10h12--------|
-12--------10--------------------------------------------------|
----------------------13--12--13p12----------------------------|

----------------------------- ---------------------------------|
-10-------------------------- -10---10----10------13-x13-10----|
-----12--9-------7---7-7-7 -- --------------------12-x12-------|
------------10--------------- ---------------------------------|
----------------------------- -verse part electric ------------|
----------------------------- ---------------------------------|

Chords verse-part acoustic   Chords chorus acoustic guitar
Dsus2 C    Am(7)  C        Dsus2 C      3X   Am7    D5
-0--0-----0-0--0--0-----0-  -0---0--0-0--  --0----------|
-3--1-----0-1--1--1-----0-  -3---1--0-1--  --1------3---|
-2--0-----0-2--0--0-----0-  -2---0--0-0--  --0------2---|
-0--2-----2-2--2--2-----2-  -0---2--2-2--  --2------0---|
----3-----3-0--0--3-----3-  -----3--3-3--  --0------0---|
--------------------------  -------------  -------------|

Electric part before 2nd chorus
strum chord stabs!
----------12---/15-15-|
-10-12-13-10----------|
-10-10-10-10--// -----|
-7--7--7--7-----------|
-#--#--#--#-----------| # = this chord is picked a couple of times!
----------------------|

electric guitar in chorus
Dm                          Em/c
--13-----------13-----------15-15-15-----/15-15-15-|
--15-15-15-15--15-15-15 \---17-17-17-17 --17-17-17-| repeat 3 times
-----14-14-14-----14-14 \---16-16-16-16 --16-16-16-|
-(12)---------(12)-----  --------------------------|
---------------------------(15)----------(15)------|
---------------------------------------------------|
    Am7                         D5
----15-12-12--12h15-12-12 \-----5------------------|
----13-13-13--13----13-13 \-----3------------------|
----14-14-14--14----14-14 \-----2------------------|
-------------------------  -----0------------------|
---(12)------(12)--------  ------------------------|
-------------------------  ------------------------|

Yes I know it is not a very good transcription!?!!
****************************************************************************

Savior Tab by Red Hot Chili Peppers
Red Hot Chili Peppers
Savior
INTRO

E--13b15----15r13--10--13---10--13b15----|
B----------------------------------------|
G----------------------------------------|
D----------------------------------------|
A----------------------------------------|
E----------------------------------------|

E---------8------------------------------|
B--8b10-------8b10r8------6h8p6--b8\-----|
G----------------------7-----------------|
D----------------------------------------|
A----------------------------------------|
E----------------------------------------|


VERSE

Dm                  C      G
  Dusting off your savior
Dm                    C
  You were always my favorite
  G          Dm   C         G
  Always my man - All in a hand
Dm                      C
  To celebrate you is greater
   G          E5
  Now that I can - Always my man


CHORUS

-Bass interlude
-Riff 1 3x
-Riff 2
-Riff 1
-Riff 3
-Riff 1
-Riff 4


Riff 1
   Dm       C      G
E---------------------------------------|
B-------8------8-------------6----------|
G--5h7----7------7-----7-5-7---7-5-7----|
D-----------5------5--------------------|
A---------------------------------------|
E---------------------------------------|

Riff 2
   Dm       C      G      Bb
E---------------------------------------|
B-------8------8------------------------|
G--5h7----7------7----------------------|
D-----------5------5------8-------------|
A---------------------------------------|
E---------------------------------------|

Riff 3
   Dm       C      G
E---------------------------------------|
B-------8------8-------------6-8--------|
G--5h7----7------7-----7-5-7-----5-7----|
D-----------5------5--------------------|
A---------------------------------------|
E---------------------------------------|

Riff 4
   Dm       C      G
E---------------------------------------|
B-------8------8------------------------|
G--5h7----7------7----------------------|
D-----------5------5--------------------|
A---------------------------------------|
E---------------------------------------|


   Dm               C       G
A butterfly that flaps its wings

Affecting almost everything
     Dm                  C    G
The more I hear the orchestra

The more I have something to bring
Dm           C      G
And now I see you in a beautiful and different light
Dm           C         G                  Bb
He's just a man and any damage done will be alright
Dm C G
Call  out my name
Dm C G
Call  and I came


SOLO
Over Verse progression
E---------------------------------------------------------------------|
B------------------------------------------------8b10-----------------|
G------5h7-7------5h7-7--5---7^--7------7--5--------------------------|
D--5h7--------5h7----------7------------------7-----------------------|
A---------------------------------------------------------------------|
E---------------------------------------------------------------------|

E--8------------------8------------8--10------8--10-------------------|
B-----10r8---8--8h10-----10----10---------10--------------------------|
G---------------------------------------------------------------------|
D---------------------------------------------------------------------|
A---------------------------------------------------------------------|
E---------------------------------------------------------------------|

E------8--15-13---13b15r13--13b15r13---13b15----15r13--p10-13---------|
B--10-----------------------------------------------------------------|
G---------------------------------------------------------------------|
D---------------------------------------------------------------------|
A---------------------------------------------------------------------|
E---------------------------------------------------------------------|

E--10--13^------10----------------------------------------------------|
B-----------13--------------------------------------------------------|
G--------------------7------------------------------------------------|
D-----------------------10--7--------------------------------10--7----|
A------------------------------10---8b10--8b10--8--10^--10^-----------|
E---------------------------------------------------------------------|

E---------------------------------------------------------------------|
B---------------------------------------------------------------------|
G---------------------------------------------------------------------|
D---------------------------------------------------------------------|
A--/12--\-8--/12--\7-\5---3--5--3-----3--5----------------------------|
E----------------------------------5----------------------------------|

E---------------------------------------------------------------------|
B---------------------------------------------------------------------|
D-----------5-----5--5----4h5p4--2-----0------------------------------|
A-----5--7-----7------------------------------------------------------|
E--8------------------------------------------------------------------|
E---------------------------------------------------------------------|

E---------------------------------------------------------------------|
B--3---3--5^--5^--5^--5^--3--^----------------------------------------|
G---------------------------------------------------------------------|
D---------------------------------------------------------------------|
A---------------------------------------------------------------------|
E---------------------------------------------------------------------|


That's it. Use delay for the Intro and final Solo
Some of the notes tabbed here might be played by the delay
but I can't be sure

Hope ya enjoy it!
****************************************************************************

Purple Stain Tab by Red Hot Chili Peppers
   --------------------------------------------------------------------
   NICE SONG

   THE VERSE RIFF

   e:----------------------------------------------------------|
   B:----------------------------------------------------------|
   G:----------------------------------------------------------|
   D:-----------------------5-5---5-5--------------------------|
   A:----------------------------------------------------------|
   E:----------------12\(0)------------------------------------|

   THE PRE_CHORUS RIFF

   e:-------------------------------|
   B:-------------------------------|
   G:-------------------------------|PLAY THIS TWICE I BELIEVE
   D:-------5--7--7-------5--7--7---|
   A:----7-------------7------------|

   G:-------------------------------|
   D:-------5--7--7-------5--7--7---|THEN PLAY THIS TWICE....ITS WEIRD BUT I THINK
   IT WORKS
   A:----7-------------7------------|

   PLAY THIS CHORUS RIFF TWICE


   e:------------8--8------------8--8--|------------8--8-----------------|
   B:------------8--8------------8--8--|------------8--8-----------------|
   G:----------------------------------|---------------------5-----------|
   D:------5--7------------5--7--------|------5--7--------------7--5-----|
   A:---7---------------7--------------|---7-----------------------------|
   E:----------------------------------|---------------------------------|

   SOMETIMES YOU HEAR SOMETHING CRAZY LIKE THIS

   e:-----------------------------------|
   B:----------------8\-----------------|
   G:----------------7\-----------------|
   D:---5------------6\------------5----|
   A:-----7-7-7-5-7--7\----5-7-7-7---7-7|
   E:-----------------------------------|
****************************************************************************

Right On Time Tab by Red Hot Chili Peppers

Song:		"Right On Time"
Artist:		Red Hot Chili Peppers
Album:		Californication
Guitar:		John Frusciante


Verse:

e--12x-12xx-12xx-12-12-12xx--------------------------------------------------|
B--12x-12xx-12xx-12-12-12xx--------------------------------------------------|
G----------------------------------------------------------------------------|
D----------------------------------------------------------------------------|
A----------------------------------------------------------------------------|
E----------------------------------------------------------------------------|

CHORUS:

e----9----7---7---9----------------------------------------------------------|
B----9----9---7---10---------------------------------------------------------|
G----9----9---8---11---------------------------------------------------------|
D----11----------------------------------------------------------------------|
A----------------------------------------------------------------------------|
E----------------------------------------------------------------------------|

or.......

e----9---12---7---5----------------------------------------------------------|
B----10--10---7---5----------------------------------------------------------|
G----11--11---8---6----------------------------------------------------------|
D----------------------------------------------------------------------------|
A----------------------------------------------------------------------------|
E----------------------------------------------------------------------------|

Its right on time, Its right on time, Its right on time, Its right on time,

Outro:

e-9-9-9-9-9-9-9-9-9-9-9-9-9-9-9-9-9-9-9-9------------------------------------|
B----------------------------------------------------------------------------|
G----------------------------------------------------------------------------|
D----------------------------------------------------------------------------|
A----------------------------------------------------------------------------|
E----------------------------------------------------------------------------|
(kepp play 9th fret, then....)

e--12x-12xx-12---------------------------------------------------------------|
B--12x-12xx-12---------------------------------------------------------------|
G----------------------------------------------------------------------------|
D----------------------------------------------------------------------------|
A----------------------------------------------------------------------------|
E----------------------------------------------------------------------------|

Oh lord!

Thats pretty much it. Look for the right rythm in the verses. Once again
I wanna say John Frusciante is a great guitarist. I really need tabs for
"Jungle Man" and "Fight Like a Brave." If you have those tabs or any
questions/comments e-mail me:
Thanx
****************************************************************************
Road Trippin Tab by Red Hot Chili Peppers

Red hot chili peppers-road trippin.


Riff 1
   Em                C      B
E-----3-----3---3--------------------|
B-------0-----0---------5---4----4---|
G-------------------------0----0-----|
D--2--2---2--------------------------|
A--------------------3--3---2--------|
E------------------------------------|

Riff 2
E-----3-----3---5-3------------------|
B-------0-----0---------5---4----4---|
G-------------------------0----0-----|
D--2--2---2--------------------------|
A--------------------3--3---2--------|
E------------------------------------|

Riff 1a
E------------------------------------|
B-----5---4----------4---------------|
G-------0----0-----0-----------------|
D------------------------------------|
A--3--3---2-----2--------------------|
E------------------------------------|

Riff 3
E--0------0-------------------------------7-----7------|
B-------1-----3--------3---5--------5/------8-----8----|
G-----2--------------0------------0-----------7-----7\-|
D----------------(0)----------(0)-------0--------------|
A--0----------2------------3---------------------------|
E------------------------------------------------------|

Riff 3a
E---------7-----------|
B-----8-----8---------|
G-------7-----7-------|
D--0------------------|
A---------------------|
E---------------------|

This is kind of a solo (Riff 4, Riff 5, Riff 4, Riff 5a)
Riff 4
E-----------------------------------------------|
B--8------8---5------5---5------5---7------7----|
G-----9----------5----------5----------7--------|
D-------9----------5----------5----------7------|
A--7----------0----------3----------5-----------|
E-----------------------------------------------|

Riff 5
E-----------------------------------5------5----|
B--8------8---5------5---5------5------4--------|
G-----9----------5----------5------------5------|
D-------9----------5----------5-----4-----------|
A--7----------0----------3----------------------|
E-----------------------------------------------|

Riff 5a
E--5----5----5---/--14----11-\--8-\--5-\--2-----|
B-----4----4-----/--13-\--10-\--7-\--4-\--1-----|
G-----------------------------------------------|
D--4----4----4---/--13-\--10-\--7-\--4-\--1-----|
A-----------------------------------------------|
E-----------------------------------------------|

Riff 1b
E-----3----3---3------------------7-------------|
B-------0----0-------5----4---4/8---------------|
G----------------------0------------------------|
D--2--2-----------------------------------------|
A-----------------3--3----2---------------------|
E-----------------------------------------------|

Riff 6
E--3-------3-------3-------3--------------------|
B------0-------0-------0------------------------|
G-----------------------------------------------|
D----2---2---2---2---2---2----------------------|
A-----------------------------------------------|
E-----------------------------------------------|

INTRO: Riff 1 (x2)

LYRICS:

-Riff 1a-
Road trippin' with my two favorite allies
-Riff 1-
Fully loaded we got snacks and supplies
-Riff 2-
It's time to leave this town, it's time to steal away
-Riff 1-
Let's go get lost anywhere in the U.S.A.

-Riff 2-
Let's go get lost, let's go get lost

Chorus:
-Riff 1- all along

Blue you sit so pretty
West of the one
Sparkles light with yellow icing
Just a mirror for the sun
Just a mirror for the sun
Just a mirror for the

-Riff 3-
sun
-Riff 3-
These Smiling eyes are just a mirror for

-Riff 1a-
So much as come before those battles lost and won
-Riff 1-
This life is shining more forever in the sun
-Riff 2-
Now let us check our heads and let us check the surf
-Riff 1-
Staying high and dry's more trouble than it's worth in the sun
-Riff 1-
Just a mirror for the sun
Just a mirror for the
-Riff 3-
sun
-Riff 3-
These Smiling eyes are just a mirror for

SOLO

-Riff 1-
In Big Sur we take some time to linger on
-Riff 1b-
We three hunky dory's got our snakefinger on
-Riff 2-
Now let us drink the stars it's time to steal away
-Riff 1a-
Let's go get lost right here in the U.S.A

-Riff 1- (there's a little variation in this riff, mail me to ask)
Let's go get lost, let's go get lost


CHORUS (Riff 1 all along)

Ending of this chorus:
                      -Riff 3a-
Just a mirror for the sun

-Riff 3-
These smiling eyes are just a mirror for
-Riff 3-
These smiling eyes are just a mirror for
-Riff 3-
Your smiling eyes are just a mirror for

ENDING: Riff 6
thats that guitar album .
i will be tabbing out the bass album for this .

thanx
i hop that you rate it , like anthony would say in the song by the way "overload by the
way i try to say.
****************************************************************************
comments
print report bad tab
9 comments total. Showing first comments.
-1 reply
bomik wrote on December 3 2005, 05:55 am

It's the only tab with right version of scar tissue

+2 reply
alip427 wrote on March 4 2006, 04:57 am

doesn't really sound good, soz.

-1 reply
Max_Pickup2 wrote on August 5 2006, 08:48 am

WOW!! this is amazing must ave taken u ages, californication is perfect! nice one! ("\(>

I want to post or [tab]
guest
You may want to rate the tab now too:
select rating
Please do not post tabs as comments. Select "correction" instead!