Oops, an error
Loading. Please wait.

Californication Bass Tab

31,297 views 63 this week
no commentswrite comment
1 2 3 4 5
excellent!
x 5
Autoscroll
+/-
esc
set tempo
stop
Contributor
Hey! There's an official Ultimate Guitar app which is ideal
for learning songs when you're away from computer. Get the app
WARNING: You are trying to view
                                    content from Ultimate-Guitar.com
                                    in an unauthorized application,
                                    which is prohibited.

                                    Please use an official Ultimate
                                    Guitar Tabs application for iPhone,
                                    iPad or Android to access legitimate
                                    chords, guitar, bass, and drum tabs
                                    from Ultimate-Guitar.com database.

                                    Type "ultimate guitar tabs" in Apple
                                    App Store's or Android Market's
                                    search to find the application.
Tabbed By : jaronthebassist

                             Californication                               


                                                      Red Hot Chili Peppers
Bass



                      |-3-|                               
      Q    E  Q    E  S S S  E     Q    E  Q    E   Q     
G||-----------9----9--7-9-7-----|----------7----7--------|
D||*--7----7----------------10--|------------------10----|
A||*----------------------------|--8----8----------------|
E||-----------------------------|------------------------|


                  |-3-|                                  
  Q    E  Q    E  S S S  E     Q    E   Q     E  Q     3x
----------9----9--7-9-7-----|----------10----10--7-----||
--7----7----------------10--|-------------------------*||
----------------------------|--8----8-----------------*||
----------------------------|--------------------------||


  Q    E  E  E  E  E  E      E  E  E   E  Q    E  E   
--------------------------|--------------------------|
--------------------------|--------------------------|
--3----3--3---------------|---------------5----5-----|
-------------3--3--3--3\--|--1--1--1s--3-------------|


                    |-3-|                               
    Q    E  Q    E  S S S  E     Q    E  Q    E   Q     
|-----------9----9--7-9-7-----|----------7----7--------|
|*--7----7----------------10--|------------------10----|
|*----------------------------|--8----8----------------|
|-----------------------------|------------------------|


                  |-3-|                                  
  Q    E  Q    E  S S S  E     Q    E   Q     E  Q       
----------9----9--7-9-7-----|----------10----10--7-----||
--7----7----------------10--|-------------------------*||
----------------------------|--8----8-----------------*||
----------------------------|--------------------------||


  Q    E  E  E  E  E  E      E  E  E   E  Q    E  E   
--------------------------|--------------------------|
--------------------------|--------------------------|
--3----3--3---------------|---------------5----5--5--|
-------------3--3--3--3\--|--1--1--1S--3-------------|


  Q    E  S E  S S S E   E     E  S S E  S E  S  E  E   E   
----------------------------|------------------------------|
--7----7--7-7--7-7-7-9--10--|-------------------10--9------|
----------------------------|--8--8-8-8--8-8--8--------10--|
----------------------------|------------------------------|


  E  S S E  S S S S E  E   E     E  S S E  S  S   S  S  E   E  E   
------------------------------|-----------------------------------|
--7--7-7-7--7-7-7-7-7--9--10--|--------------10s-14-14-12--10--9--|
------------------------------|--8--8-8-8--8----------------------|
------------------------------|-----------------------------------|


  E  S S E  S S S S E  E   E     E  S S E  S E  S  E  E   E   
------------------------------|------------------------------|
--7--7-7-7--7-7-7-7-7--9--10--|-------------------10--9------|
------------------------------|--8--8-8-8--8-8--8--------10--|
------------------------------|------------------------------|


  E  S S E  S S S S E  E   E     E  S S E  S E  S  E  E   E   
------------------------------|------------------------------|
--7--7-7-7--7-7-7-7-7--9--10--|-------------------10--9------|
------------------------------|--8--8-8-8--8-8--8--------10--|
------------------------------|------------------------------|


  E  S S E  S S S S E  E   E     E  S S E  S E   S E  E  S  S  
------------------------------|-------------------------------|
--7--7-7-7--7-7-7-7-7--9--10--|-----------------10-9--7-------|
------------------------------|--8--8-8-8--8-8-----------8p-7-|
------------------------------|-------------------------------|


  Q    E  S E  S S S E   E     E  S S E  S S S S S S S S E   
----------------------------|-------------------------------|
--7----7--7-7--7-7-7-9--10--|-------------------------------|
----------------------------|--8--8-8-8--8-8-8-8-8-8-8-8-8--|
----------------------------|-------------------------------|


    Q    Q    Q    E  S  S    Q    E  S S Q    Q     3x
|--------------------------|-------------------------||
|*-------------------------|------------------------*||
|*--3----3-----------------|--5----5--5-7-----------*||
|-------------3----3--3s-5-|--------------5----5-----||


  Q    E  S S E  E  E  E     W                 
--------------------------|-------------------|
--------------------------|-------------------|
--3----3--3------2--3--5--|--L----------------|
------------0-3-----------|-------------------|


                    |-3-|                               
    Q    E  Q    E  S S S  E     Q    E  Q    E   Q     
|-----------9----9--7-9-7-----|----------7----7--------|
|*--7----7----------------10--|------------------10----|
|*----------------------------|--8----8----------------|
|-----------------------------|------------------------|


                  |-3-|                                  
  Q    E  Q    E  S S S  E     Q    E   Q     E  Q       
----------9----9--7-9-7-----|----------10----10--7-----||
--7----7----------------10--|-------------------------*||
----------------------------|--8----8-----------------*||
----------------------------|--------------------------||


  Q    E  E  E  E  E  E      E  E  E   E  Q    E  E   
--------------------------|--------------------------|
--------------------------|--------------------------|
--3----3--3---------------|---------------5----5-----|
-------------3--3--3--3\--|--1--1--1S--3-------------|


                    |-3-|                               
    Q    E  Q    E  S S S  E     Q    E  Q    E   Q     
|-----------9----9--7-9-7-----|----------7----7--------|
|*--7----7----------------10--|------------------10----|
|*----------------------------|--8----8----------------|
|-----------------------------|------------------------|


                  |-3-|                                  
  Q    E  Q    E  S S S  E     Q    E   Q     E  Q       
----------9----9--7-9-7-----|----------10----10--7-----||
--7----7----------------10--|-------------------------*||
----------------------------|--8----8-----------------*||
----------------------------|--------------------------||


  Q    E  E  E  E  E  E      E  E  E   E  Q    E  E   
--------------------------|--------------------------|
--------------------------|--------------------------|
--3----3--3---------------|---------------5----5--5--|
-------------3--3--3--3\--|--1--1--1S--3-------------|


  Q    E  S E  S S S E   E     E  S S E  S E  S  E  E   E   
----------------------------|------------------------------|
--7----7--7-7--7-7-7-9--10--|-------------------10--9------|
----------------------------|--8--8-8-8--8-8--8--------10--|
----------------------------|------------------------------|


  E  S S E  S S S S E  E   E     E  S S E  S  E   S E  E   E   
------------------------------|-------------------------------|
--7--7-7-7--7-7-7-7-7--9--10--|--------------10--10-9--7------|
------------------------------|--8--8-8-8--8--------------10--|
------------------------------|-------------------------------|


  E  S S E  S S S S E  E   E     E  S S E  S E  S  E  E   E   
------------------------------|------------------------------|
--7--7-7-7--7-7-7-7-7--9--10--|-------------------10--9------|
------------------------------|--8--8-8-8--8-8--8--------10--|
------------------------------|------------------------------|


  E  S S E  S S S S E  E   E     E  S S E  S E    S  E   E  E   
------------------------------|--------------------------------|
--7--7-7-7--7-7-7-7-7--9--10--|-----------------/12-12--10--9--|
------------------------------|--8--8-8-8--8-8-----------------|
------------------------------|--------------------------------|


  E  S S E  S S S S E  E   E     E  S S E  S E  S  E  E   S  S  
----------------9-------------|--------------------------------|
--7--7-7-7--7-7---7-7--9--10--|-------------------10--9--------|
------------------------------|--8--8-8-8--8-8--8--------10-10-|
------------------------------|--------------------------------|


  E  S S E  S E  S E  E   E     E  S S E  S   E   S  S  S  S  S  E    
-----------------------------|---------------------------------------|
--7--7-7-7--7-7--7-7--9--10--|---------------------------------------|
-----------------------------|--8--8-8-8--8S-20--20-20-20-20-20-20S--|
-----------------------------|---------------------------------------|


  Q    E.  S Q    E  S  S    Q    E  S S Q    E  E   
--------------------------|-------------------------|
--------------------------|-------------------------|
--3----3------------------|--5----5--5-7------------|
-----------0-3----3--3s-5-|--------------5----5--5--|


  Q    E.  S E  E  E  E     E  E  E.  S S S S S S S E   
-------------------------|--------------7---------7----|
----------------5--------|----------------7-----7------|
--3----3-----------3--5--|--L--5--5---5-----5-5-----5--|
-----------0-3-----------|-----------------------------|


  Q    Q    Q    E  S  S    Q    E  S S Q    E  E   
-------------------------|-------------------------|
-------------------------|-------------------------|
--3----3-----------------|--5----5--5-7------------|
------------3----3--3s-5-|--------------5----5-----|


  E  E  E  S S E  E  E  E     W                 
---------------------------|-------------------|
---------------------------|-------------------|
--3--5--3---------2--3--5--|--L----------------|
-----------5-5-3-----------|-------------------|


   E   E   E   E   Q     E   E       Q     E   Q     E   Q      
--14-----------------------------|------------14---------------|
--------------18--------16-------|-----------------------------|
---------------------------------|-----------------------------|
------14--14------14--------14S--|--10----10--------10--10S----|


   E   E   E   E   Q     E   E       Q     E   Q     E   E  E   
--14-----------------------------|------------14---------------|
--------------18--------16-------|-----------------------------|
---------------------------------|-----------------------------|
------14--14------14--------14S--|--10----10--------10--10--0--|


  E  E  Q    E  E  Q       E  E  Q    E  E  E  E   
-------------------7----|-------------------------|
--------9-------7-------|--------7----------------|
-----9-------5----------|-----7-------------7-----|
--7---------------------|--5----------0--7-----0--|


   E   E   E   E   E   E   E   E       Q     E   Q     E   E   E    
------14---------------------------|------------14-----------------|
--------------18------16--14-------|-------------------------------|
-----------------------------------|-------------------------------|
--14------14------14----------14S--|--10----10--------10--10--10S--|


   E   E   E   E   E   E   E   E       Q     E   Q     E   E  E   
------14---------------------------|------------14---------------|
--------------18------16--14-------|-----------------------------|
-----------------------------------|-----------------------------|
--14------14------14----------14S--|--10----10--------10--10--0--|


    E  E  E  E  E  E  E  E     E  E  E  S S E  E  E  S S  3x
|---------------------7-----|-----------------------------||
|*--------9--------7--------|--------7-------------------*||
|*-----9--------5--------5--|-----7---------------7------*||
|---7--------7--------------|--5--------5-5-0--7-----0-0--||


                                                  |-3-|      
  E  E  S S S S E  E  S S E       Q    E  Q    E  S S S  E   
-----------------------------||-----------9----9--7-9-7-----|
--------7-7------------------||*--7----7----------------10--|
-----7----------------7-7----||*----------------------------|
--5---------5-5-0--7---------||-----------------------------|


                                           |-3-|      
  Q    E  Q    E   Q       Q    E  Q    E  S S S  E   
----------7----7--------|----------9----9--7-9-7-----|
------------------10----|--7----7----------------10--|
--8----8----------------|----------------------------|
------------------------|----------------------------|


  Q    E   Q     E  Q         Q    E  E  E  E  E  E    
----------10----10--7-----||--------------------------|
-------------------------*||--------------------------|
--8----8-----------------*||--3----3--3---------------|
--------------------------||-------------3--3--3--3\--|


  E  E  E   E  Q    E  E     Q    E  S E  S S S E   E   
--------------------------|----------------------------|
--------------------------|--7----7--7-7--7-7-7-9--10--|
---------------5----5--5--|----------------------------|
--1--1--1S--3-------------|----------------------------|


  E  S S E  S E  S  E  E   E     E  S S E  S S S S E  E   E   
------------------------------|------------------------------|
-------------------10--9------|--7--7-7-7--7-7-7-7-7--9--10--|
--8--8-8-8--8-8--8--------10--|------------------------------|
------------------------------|------------------------------|


  E  S S E  S E  S E  E  E     E  S S E  S S S S E  E   E   
----------------------------|------------------------------|
----------------------------|--7--7-7-7--7-7-7-7-7--9--10--|
--8--8-8-7--7-5--5-3--2--0--|------------------------------|
----------------------------|------------------------------|


  E  S S E  S E  S  E  E   E     E  S S E  S S S S E  E   E   
------------------------------|------------------------------|
-------------------10--9------|--7--7-7-7--7-7-7-7-7--9--10--|
--8--8-8-8--8-8--8--------10--|------------------------------|
------------------------------|------------------------------|


  E  S S E  S S S S  E  E   E     E  S S E  S S S S E  E   E   
-------------------------------|------------------------------|
--------------7-----10--9------|--7--7-7-7--7-7-7-7-7--9--10--|
--8--8-8-8--8---8-8--------10--|------------------------------|
-------------------------------|------------------------------|


                           |--3-|                                     
  E  S S E  S S S  S  S  S S  S S  E     E  S S E  S S S S E  E   E   
--------------------------------------|------------------------------|
------------------10-10-10-9-10-9-----|--7--7-7-7--7-7-7-7-7--9--10--|
--8--8-8-8--8-8-8-----------------10--|------------------------------|
--------------------------------------|------------------------------|


  E  S S E  S   E   S  S  S  S  S  E     Q    E.  S Q    E  S  S  
--------------------------------------|--------------------------|
--------------------------------------|--------------------------|
--8--8-8-8--8S-20--20-20-20-20-20-20--|--3----3---3--------------|
--------------------------------------|-------------3----3--3s-5-|


  Q    E  E  Q    E  E     Q    E.  S E  E  E  E   
------------------------|-------------------------|
------------------------|-------------------------|
--5----5--5-------------|--3----3--------2--3--5--|
-------------5----5-----|-----------0-3-----------|


  E  E  E.  S S S S S S S E     Q    Q    Q    E  E   
--------------7---------7----|-----------------------|
------------7---7-----7------|-----------------------|
--L--5--5---------5-5-----5--|--3----3---------------|
-----------------------------|------------3----3--3--|


  Q    Q    Q    E  E     Q    E  E  E  E  E  E     W                  
-----------------------|-------------------------|-------------------||
-----------------------|-------------------------|-------------------||
--5----5---------------|--3----3--------2--3--5--|--L----------------||
------------5----5-----|----------0--3-----------|-------------------||




Duration Legend
---------------
W - whole
H - half
Q - quarter
E - 8th
S - 16th
T - 32nd
X - 64th
. - note dotted
|-n-|  - n-tuplets


Tablature Legend
----------------
L - tied note
x - dead note
g - grace note
(n) - ghost note
> - accentuded note
NH - natural harmonic
AH - artificial harmonic
TH - tapped harmonic
SH - semi harmonic
PH - pitch harmonic
h - hammer on
p - pull off
b - bend
br - bendRelease
pb - preBend
pbr - preBendRelease
brb - bendReleaseBend
\n/ - tremolo bar dip
\n - tremolo bar dive
-/n - tremolo bar Release up
/n\ - tremolo bar inverted dip
/n - tremolo bar return
-\n - tremolo bar Release down
S - shift slide
s - legato slide
/ -  slide into from below or out of upwards
\ -  slide into from above or out of downwards
~ - vibrato
W - wide vibrato
tr - trill
TP - tremolo picking
T - tapping
S - slap
P - pop
< - fade in
^ - brush up
v - brush down
comments
print report bad tab
I want to post or [tab]
guest
You may want to rate the tab now too:
select rating
Please do not post tabs as comments. Select "correction" instead!