Oops, an error
Loading. Please wait.

Cant Stop Bass Tab

7,729 views 6 this week
no commentswrite comment
1 2 3 4 5
worth learning
x 9
add to favorites launch autoscroll
font size
0
reset
Autoscroll
+/-
esc
set tempo
stop
Contributor
WARNING: You are trying to view
                                    content from Ultimate-Guitar.com
                                    in an unauthorized application,
                                    which is prohibited.

                                    Please use an official Ultimate
                                    Guitar Tabs application for iPhone,
                                    iPad or Android to access legitimate
                                    chords, guitar, bass, and drum tabs
                                    from Ultimate-Guitar.com database.

                                    Type "ultimate guitar tabs" in Apple
                                    App Store's or Android Market's
                                    search to find the application.
============================================================================
                   Red Hot Chili Peppers - Cant Stop
============================================================================

tabbed by: Louis
Album: By the Way

Intro:

g--------------------------------------------------------------------
d---------------------------------------------------Guitar-Intro-----
a--------------------------------------------------------------------
e-0-0-0-0-0-0-0-0-0-0-0-0-0-0-0-0-0-0-0-0-0-0-0-0--------------------

Verse: 

g----7-9-------7---9--------7--9---------7----9-----
d*---------------0--------------------------0-------
a*-7-----7---x--------7--5--------7----x---------7--
e----------0-------------------------0--------------
   T P P T T T P T P  T  T  P  P  T  T T P  T P  T
g---4-4------4---4---------5-5--------5---5------ <You could play the b,c^^^
d------------------------------------------------*<octives from the E string
a-2-----2-2----x-----2--3--------3-3----x-----3--*<But this makes them sound 
e------------------------------------------------ <funky ^d--9-9.....-10-10
  T P P T T  P T P   T  T  P P   T T  P T P   T          ^a-----.....------
                                                         ^e-7---.....8-----
Chorus:

g--------------------------------------------------------------------------
d------7H9-10-------9---9------12---12-10-----------------10--12-----------
a-10------------------10--10---------------12--10---10-12---------9-9-10/\-
e--------------------------------------------------------------------------

g--------------------------------------------------------------------------
d------7H9-10-------9---9------12---12-10-----------------10--12-----------
a-10------------------10--10---------------12--10---10-12---------9---10---
e--------------------------------------------------------------------------

Then you return to the verse and do the chorus again


Interlude:

          Harmonics.    .
g|-----9------|----7----7------|-----4---4-------|-----7h5----------|
d|------------|----------------|-----------------|------------------|
a|-7-----7----|-------5--------|-------2---2-----|------------3-----|
e|---0--------|----------------|-----------------|------------------|

          Harmonics.    .
g|-----9------|----7----7------|-----4---4-------|-----7h5----------|
d|------------|----------------|-----------------|------------------|
a|-7-----7----|-------5--------|-------2---2-----|----------3---4-5-|
e|---0--------|----------------|-----------------|------------------|

          Harmonics.    .
g|-----9------|----7----7------|-----4---4-------|-----7h5----------|
d|------------|----------------|-----------------|------------------|
a|-7-----7----|-------5--------|-------2---2-----|---------3-3h5-1h3|
e|---0--------|----------------|-----------------|------------------|

          Harmonics.    .
g|-----9------|----7----7------|-----4---4-------|-----7h5----------|
d|------------|----------------|-----------------|------------------|
a|-7-----7----|-------5--------|-------2---2-----|------------3-----|
e|---0--------|----------------|-----------------|------------------|

Guitar Solo:

g----7-9-------7---9--------7--9---------7----9-----
d*---------------0--------------------------0-------
a*-7-----7---x--------7--5--------7--x-----------7--
e----------0---------------------------0------------
   T P P T T T P T P  T  T  P  P  T  T T P  T P  T

g---4-4-------4---4-------5-5----------3--------------
d----------------------------------3h5-----3h5--------
a-2------2-2----x-----3--------3h5--------------3h5---
e-----------------------------------------------------
  T P P  T T  P T P   T   P P

Verse:

g----7-9-------7---9--------7--9---------7----9-----
d*---------------0--------------------------0-------
a*-7-----7---x--------7--5--------7--x-----------7--
e----------0---------------------------0------------
   T P P T T T P T P  T  T  P  P  T  T T P  T P  T
g---4-4------4---4---------5-5--------5---5------ 
d------------------------------------------------*
a-2-----2-2----x-----2--3--------3-3----x-----3--*
e------------------------------------------------ 
  T P P T T  P T P   T  T  P P   T T  P T P   T          
                                                
Please rate this
comments
print report bad tab
I want to post or [tab]
guest
You may want to rate the tab now too:
select rating
Please do not post tabs as comments. Select "correction" instead!