Oops, an error
Loading. Please wait.

Cant Stop Bass Tab

13,153 views 75 this week
no commentswrite comment
1 2 3 4 5
excellent!
x 8
Autoscroll
+/-
esc
set tempo
stop
Contributor
Difficulty
advanced
Hey! There's an official Ultimate Guitar app which is ideal
for learning songs when you're away from computer. Get the app
WARNING: You are trying to view
                                    content from Ultimate-Guitar.com
                                    in an unauthorized application,
                                    which is prohibited.

                                    Please use an official Ultimate
                                    Guitar Tabs application for iPhone,
                                    iPad or Android to access legitimate
                                    chords, guitar, bass, and drum tabs
                                    from Ultimate-Guitar.com database.

                                    Type "ultimate guitar tabs" in Apple
                                    App Store's or Android Market's
                                    search to find the application.
S=Slap
P=Pop
/or\ = Slide
X = Ghost Note
WARNING!: this tab is hard to play, it sounds good though and i hope u like it! 

EADG

Intro:
G|-------------------------|-------------------------|
D|-------------------------|-------------------------|  X4
A|-------------------------|-------------------------|
E|-00-00-00-00-00-00-00-00-|-00-00-00-00-00-00-00-00-|

G|-------------------------|-----------------------------|
D|-------------------------|-----------------------------|  
A|-------------------------|-/77-77-77-77-77-77-77-77----|
E|-00-00-00-00-00-00-00-00-|---------------------------0-|


Verse 1:

   S P  S
G|---0---------|
D|-------------| This is the slide I do to start the 1st verse
A|-------------|
E|-X----3/15\3-|


   S  P  P S S S P S P S P S   S  P  P  S S S P S P S P S
G|----7--9-------7---9---9---|----7--9--------7---9---9---|
D|---------------------------|----------------------------|
A|-7-------7-7-X---X---X---7-|-5--------5-5-X---X---X-----|
E|---------------------------|--------------------------5-|

   S  P  P S S S P S P S P S   S  P   P  S S S P    P S P S
G|---------------------------|-------------------------------|
D|----9--9-------9---9---9---|----10--10---------------------|
A|---------------------------|-----------------10---9---7----|
E|-7-------7-7-X---X---X---7-|-8---------8-8-X----X---X---10-|

   S  P  P S S S P S P S P S   S  P  P  S S S P  S P  S P  S
G|----7--9-------7---9---9---|----7--9--------11---12---11----|
D|---------------------------|-----------------------------12-|
A|-7-------7-7-X---X---X---7-|-5--------5-5-X----X----X-------|
E|---------------------------|--------------------------------|

   S  P  P S S S P S P S P S   S  P   P  S S S P  S P S P S
G|---------------------------|--------------------------7-----|
D|----9--9-------9---9---9---|----10--10------------9------9--|
A|---------------------------|-----------------10-------------|
E|-7-------7-7-X---X---X---7-|-8---------8-8-X----X---X-------|

   S  P  P S S S P S P S P S   S  P  P  S  S P S P S P S
G|----7--9-------7---9---9---|----7--9--------7---9---9---|
D|---------------------------|----------------------------|
A|-7-------7-7-X---X---X---7-|-5--------5-5-X---X---X-----|
E|---------------------------|--------------------------5-|

   S  P  P S S S P S P S P S   S  P   P  S S S P  S P S P  S
G|---------------------------|-------------------------------|
D|----9--9-------9---9---9---|----10--10-------10---10--10---|
A|---------------------------|-------------------------------|
E|-7-------7-7-X---X---X---7-|-8---------8-8-X----X---X----8-|


Chorus 1:

G|-----------------------|-----------------------------|
D|--------9-10-12--12-12-|-9---7-9-7--10--10-10--10h12-|  
A|-10--10----------------|-----------------------------|
E|-----------------------|-----------------------------|

G|-----------------------|-------------------7h9--7-|
D|--------9-10-12--12-12-|-9---7-9-7--10--10--------|  
A|-10--10----------------|--------------------------|
E|-----------------------|--------------------------|

G|-----------------------|-------11----------------------|
D|--------9-10-12--12-12-|-9---7----9-10--10--10-12-10-9-|  
A|-10--10----------------|-------------------------------|
E|-----------------------|-------------------------------|

G|-----------------------|--------------|
D|--------9-10-12--12-12-|-X-X-9--10----|  
A|-10--10----------------|--------------|
E|-----------------------|--------------|


Verse2:

   S  P  P S S S P S P S P S   S  P  P  S S S P S P S P S
G|----7--9-------7---9---9---|----7--9--------7---9---9---|
D|---------------------------|----------------------------|
A|-7-------7-7-X---X---X---7-|-5--------5-5-X---X---X-----|
E|---------------------------|--------------------------5-|

   S  P  P S S S P S P S P S   S  P   P  S S S P  S P S P S
G|---------------------------|-------------------------------|
D|----9--9-------9---9---9---|----10--10---------------------|
A|---------------------------|-----------------10---9---7----|
E|-7-------7-7-X---X---X---7-|-8---------8-8-X----X---X---10-|

   S  P  P S S S P S P S P S   S  P  P  S S S P   P S P 
G|----7--9-------7---9---9---|----7--9------------7---7h9-|
D|---------------------------|----------------7h9---------|
A|-7-------7-7-X---X---X---7-|-5--------5-5-X-------X-----|
E|---------------------------|----------------------------|

   S  P  P S S S P S P S P S   S  P   P  S S S P  S P  S P 
G|---------------------------|-----------------16---14---11h12-|
D|----9--9-------9---9---9---|----10--10-----------------------|
A|---------------------------|---------------------------------|
E|-7-------7-7-X---X---X---7-|-8---------8-8-X----X----X-------|

   S  P  P S S S P S P S P S   S  P  P  S S S P  S P  S P  S
G|----7--9-------7---9---9---|----7--9--------11---12---11----|
D|---------------------------|-----------------------------12-|
A|-7-------7-7-X---X---X---7-|-5--------5-5-X----X----X-------|
E|---------------------------|--------------------------------|

   S  P  P S S S P S P S P S   S  P   P  S S S P  S P S P 
G|---------------------------|-----------------9----7-------|
D|----9--9-------9---9---9---|----10--10----------------7\5-|
A|---------------------------|------------------------------|
E|-7-------7-7-X---X---X---7-|-8---------8-8-X----X---X-----|

   S  P  P S S S P S P S P S   S  P  P  S S S P S P S P S
G|----7--9-------7---9---9---|----7--9--------7---9---9---|
D|---------------------------|----------------------------|
A|-7-------7-7-X---X---X---7-|-5--------5-5-X---X---X-----|
E|---------------------------|--------------------------5-|

   S  P  P S S S P S P S P S   S  P   P  S S S P  S P  P  S
G|---------------------------|--------12------------9-9-----|
D|----9--9-------9---9---9---|----10-----------10-----------|
A|---------------------------|------------------------------|
E|-7-------7-7-X---X---X---7-|-8---------8-8-X----X-------8-|


Chorus2:

G|-----------------------|---------------------------|
D|--------9-10-12--12-12-|-9---7-9-7--10--10-10--9-7-|  
A|-10--10----------------|---------------------------|
E|-----------------------|---------------------------|

G|-----------------------|----------------7h9--7------|
D|--------9-10-12--12-12-|-9---7-9-7--10---------10-9-|  
A|-10--10----------------|----------------------------|
E|-----------------------|----------------------------|

G|-----------------------|------------10-------------|
D|--------9-10-12--12-12-|-9---7-9-7-----10-9-7----7-|  
A|-10--10----------------|----------------------10---|
E|-----------------------|---------------------------|

G|-----------------------|--10-12----|
D|--------9-10-12--12-12-|--9--10----|  
A|-10--10----------------|-----------|
E|-----------------------|-----------|


Bridge:

G|------------------|-12/14-----------|-------------|---------------------|
D|---------14-------|-------12----12--|-------9-----|-10/12-10----10------|
A|------------------|-----------------|-------------|---------------------|
E|--12-12-----12\---|----------10-----|--7-7----7---|----------8-------10-|

G|------------------|-12/14-----------|-------------|-----------------------------|
D|---------14-------|-------12----12--|-------9-----|-10/12-10----10--------------|
A|------------------|-----------------|-------------|-----------------10-12-------|
E|--12-12-----12\---|----------10-----|--7-7----7---|----------8------------10-11-|

G|------------------|-12/14-----------|-------------|--------------------12-------|
D|---------14-------|-------12----12--|-------9-----|-10/12-10----10-----------12-|
A|------------------|-----------------|-------------|-----------------10----------|
E|--12-12-----12\---|----------10-----|--7-7----7---|----------8------------10----|

G|------------------|-12/14-----------|-------------|----------------------|
D|---------14-------|-------12----12--|-------9-----|-10/12-10----10-------|
A|------------------|-----------------|-------------|----------------------|
E|--12-12-----12\---|----------10-----|--7-7----7---|----------8-----8--10-|


Guitar Solo:

   S  P  P S S S P S P S P S   S  P  P  S S S P S P S P S
G|----7--9-------7---9---9---|----7--9--------7---9---9---|
D|---------------------------|----------------------------|
A|-7-------7-7-X---X---X---7-|-5--------5-5-X---X---X-----|
E|---------------------------|--------------------------5-|

   S  P  P S S S P S P S P S    
G|---------------------------|----------12----12-14-14/16--14-12--------------------|
D|----9--9-------9---9---9---|-12-13-14----14--------------------14-12--------------|
A|---------------------------|-----------------------------------------14-13-12--10-|
E|-7-------7-7-X---X---X---7-|------------------------------------------------------|

   S  P  P S S S P S P S P S   S  P  P  S S S P S P S P S
G|----7--9-------7---9---9---|----7--9--------7---9---9---|
D|---------------------------|----------------------------|
A|-7-------7-7-X---X---X---7-|-5--------5-5-X---X---X-----|
E|---------------------------|--------------------------5-|

   S  P  P S S S P S P S P S   S  P   P  S S  P  S P  S  P
G|---------------------------|----------------12---X-----14-|
D|----9--9-------9---9---9---|----10--10--------------------|
A|---------------------------|-------------10----X----12----|
E|-7-------7-7-X---X---X---7-|-8---------8------------------|


Post Guitar Solo (->outro):

   S  P  P S S S P S P S P S   S  P  P  S S S P S P S P S
G|----7--9-------7---9---9---|----7--9--------7---9---9---|
D|---------------------------|----------------------------|
A|-7-------7-7-X---X---X---7-|-5--------5-5-X---X---X-----|
E|---------------------------|--------------------------5-|

   S  P  P S S S P S P S P S   S  P   P  S S S P  S P S P S
G|---------------------------|-------------------------------|
D|----9--9-------9---9---9---|----10--10---------------------|
A|---------------------------|-----------------10---9---7----|
E|-7-------7-7-X---X---X---7-|-8---------8-8-X----X---X---10-|


   S  P  P S S S P S P S P S   S  P  P  S S S P  S P  S P  S
G|----7--9-------7---9---9---|----7--9--------11---12---11----|
D|---------------------------|-----------------------------12-|
A|-7-------7-7-X---X---X---7-|-5--------5-5-X----X----X-------|
E|---------------------------|--------------------------------|

   S  P  P S S S P S P S P S   S  P   P  S S S P  S P S P 
G|---------------------------|-----------------9----7-------|
D|----9--9-------9---9---9---|----10--10----------------7\5-|
A|---------------------------|------------------------------|
E|-7-------7-7-X---X---X---7-|-8---------8-8-X----X---X-----|

   S  P  P S S S P S P S P S   S  P   P  S S  P  S P  S  P  S
G|---------------------------|----------------12---X-----11----|
D|----9--9-------9---9---9---|----10--10-----------------------|
A|---------------------------|-------------10----X----9-----9\-|
E|-7-------7-7-X---X---X---7-|-8---------8---------------------|

   S  P  P S S S P S P S P S   S  P  P  S S S P   S S   P 
G|----7--9-------7---9---9---|----7--9--------9p7-------7-|
D|---------------------------|--------------------0-7h9---|
A|-7-------7-7-X---X---X---7-|-5--------5-5-X-------------|
E|---------------------------|----------------------------|

   S  P  P S S S P S P S P S   S  P   P  S S S P  S P  S P 
G|---------------------------|-----------------16---14---11h12-|
D|----9--9-------9---9---9---|----10--10-----------------------|
A|---------------------------|---------------------------------|
E|-7-------7-7-X---X---X---7-|-8---------8-8-X----X----X-------|

   S  P  P S S S P S P S P S   S  P  P  S S S P S P S P S
G|----7--9-------7---9---9---|----7--9--------7---9---9---|
D|---------------------------|----------------------------|
A|-7-------7-7-X---X---X---7-|-5--------5-5-X---X---X-----|
E|---------------------------|--------------------------5-|

   S  P  P S S S P S P S P S   S  P   P  S S S P  S P S P S   S
G|---------------------------|----------------------------------|
D|----9--9-------9---9---9---|----10--10------------------------|
A|---------------------------|-----------------10---9---7-------|
E|-7-------7-7-X---X---X---7-|-8---------8-8-X----X---X---10--0-|


Leave a comment on how it was for you if you want to hear what it should sound like go here:
 http://www.youtube.com/watch?v=ZflBTTNjCsE

comments
print report bad tab
I want to post or [tab]
guest
You may want to rate the tab now too:
select rating
Please do not post tabs as comments. Select "correction" instead!