Oops, an error
Loading. Please wait.

Cant Stop Tab

11,650 views 6 this week
3 commentsread comments
1 2 3 4 5
accurate
x 15
Autoscroll
+/-
esc
set tempo
stop
Contributor
Hey! There's an official Ultimate Guitar app which is ideal
for learning songs when you're away from computer. Get the app
WARNING: You are trying to view
                                    content from Ultimate-Guitar.com
                                    in an unauthorized application,
                                    which is prohibited.

                                    Please use an official Ultimate
                                    Guitar Tabs application for iPhone,
                                    iPad or Android to access legitimate
                                    chords, guitar, bass, and drum tabs
                                    from Ultimate-Guitar.com database.

                                    Type "ultimate guitar tabs" in Apple
                                    App Store's or Android Market's
                                    search to find the application.
 Cant Stop                                     
 By The Red Hot Chili Peppers
 
 Any Corrections/Problems Send To 

 ENJOY!

                                                             
E||----------------------------|----------------------------|
B||----------------------------|----------------------------|
G||----------------------------|----------------------------|
D||----------------------------|----------------------------|
A||--5-7~-5-7~-5-7~-5-7~-5-7---|--5-7~-5-7~-5-7~-5-7~-5-7---|
E||----------------------------|----------------------------|


                                                          
----------------------------|----------------------------|
----------------------------|----------------------------|
----------------------------|----------------------------|
----------------------------|----------------------------|
--5-7~-5-7~-5-7~-5-7~-5-7---|--5-7~-5-7~-5-7~-5-7~-5-7---|
----------------------------|----------------------------|


                                                            
------------------------------|----------------------------|
------------------------------|----------------------------|
------------------------------|----------------------------|
------------------------------|----------------------------|
--5-7~-5-7r7-5-7~-5---7-5-7---|--5-7~-5-7~-5-7~-5-7~-5-7---|
--------------------7---------|----------------------------|


                                                          
----------------------------|----------------------------|
----------------------------|----------------------------|
----------------------------|----------------------------|
----------------------------|----------------------------|
--5-7~-5-7~-5-7~-5-7~-5-7---|--5-7~-5-7~-5-7~-5-7~-5-7---|
----------------------------|----------------------------|


                                                               
-------------------------------|------------------------------|
-------------------------------|------------------------------|
------7--9--------7-x-9--------|-----7--9--------7-x-9--7-----|
-------------------------------|--0--------0-0-0--------x-0-0-|
--7-7-------7-7-7--------7-7-7-|------------------------0-----|
-------------------------------|------------------------------|


                                                             
------------------------------|-----------------------------|
------------------------------|-----------------------------|
-----7--9--------7-x-9--7-----|-----7--9--------7-x-9--9----|
-----x-----------x-x----x-----|-----x-----------x-x----x----|
-----x-----------x-x----x-----|-----x-----------x-x----x----|
--7--7-----7-7-7-7-x----7-7-7-|--8--8-----8-8-8-8-x----8-8--|


                                                               
-------------------------------|------------------------------|
-------------------------------|------------------------------|
------7--9--------7-x-9--------|-----7--9--------7-x-9--7-----|
-------------------------------|--0--------0-0-0--------x-0-0-|
--7-7-------7-7-7--------7-7-7-|------------------------0-----|
-------------------------------|------------------------------|


                                                             
------------------------------|-----------------------------|
------------------------------|-----------------------------|
-----7--9--------7-x-9--7-----|-----7--9--------7-x-9--9----|
-----x-----------x-x----x-----|-----x-----------x-x----x----|
-----x-----------x-x----x-----|-----x-----------x-x----x----|
--7--7-----7-7-7-7-x----7-7-7-|--8--8-----8-8-8-8-x----8-8--|


                                                               
-------------------------------|------------------------------|
-------------------------------|------------------------------|
------7--9--------7-x-9--------|-----7--9--------7-x-9--7-----|
-------------------------------|--0--------0-0-0--------x-0-0-|
--7-7-------7-7-7--------7-7-7-|------------------------0-----|
-------------------------------|------------------------------|


                                                             
------------------------------|-----------------------------|
------------------------------|-----------------------------|
-----7--9--------7-x-9--7-----|-----7--9--------7-x-9--9----|
-----x-----------x-x----x-----|-----x-----------x-x----x----|
-----x-----------x-x----x-----|-----x-----------x-x----x----|
--7--7-----7-7-7-7-x----7-7-7-|--8--8-----8-8-8-8-x----8-8--|


                                                               
-------------------------------|------------------------------|
-------------------------------|------------------------------|
------7--9--------7-x-9--------|-----7--9--------7-x-9--7-----|
-------------------------------|--0--------0-0-0--------x-0-0-|
--7-7-------7-7-7--------7-7-7-|------------------------0-----|
-------------------------------|------------------------------|


                                                             
------------------------------|-----------------------------|
------------------------------|-----------------------------|
-----7--9--------7-x-9--7-----|-----7--9--------7-x-9--9----|
-----x-----------x-x----x-----|-----x-----------x-x----x----|
-----x-----------x-x----x-----|-----x-----------x-x----x----|
--7--7-----7-7-7-7-x----7-7-7-|--8--8-----8-8-8-8-x----8-8--|


                                                               
-------------------------------|------------------------------|
-------------------------------|------------------------------|
------7--9--------7-x-9--------|-----7--9--------7-x-9--7-----|
-------------------------------|--0--------0-0-0--------x-0-0-|
--7-7-------7-7-7--------7-7-7-|------------------------0-----|
-------------------------------|------------------------------|


                                                                 
-----------------------------|--7-----7-----7-----7-----7---x-x-|
-----------------------------|----8-----8-----8-----8-----8-x-x-|
-----7--9--------7-x-9--9-9--|------9-----9-----9-----9-----x-x-|
-----x-----------x-x---------|----------------------------------|
-----x-----------x-x---------|----------------------------------|
--7--7-----7-7-7-7-x---------|----------------------------------|


                                                             
--3---3-3-------------------|------------7---7---7---7---x--|
--3---3-3-x-7--7--7--7--x-x-|--7---7-7-x-8---8---8---8---x--|
--4---4-4-x-7--7--7--7--x-x-|--7---7-7-x-9---9---9---9---x--|
--5---5-5-x-7--7--7--7--x-x-|--9---9-9-x-10--10--10--10--x--|
--x---x-x---5--5--5--5------|--x---x-x---x---x---x---x------|
--3---3-3-------------------|--7---7-7---8---8---8---8------|


                                                            
--3---3-3------------------|------------7---7---7---7---x--|
--3---3-3-x-7----7--7--x-x-|--7---7-7-x-8---8---8---8---x--|
--4---4-4-x-7----7--7--x-x-|--7---7-7-x-9---9---9---9---x--|
--5---5-5-x-7----7--7--x-x-|--9---9-9-x-10--10--10--10--x--|
--x---x-x---5----5--5------|--x---x-x---x---x---x---x------|
--3---3-3------------------|--7---7-7---8---8---8---8------|


                                                            
--3---3-3------------------|------------7---7---7---7---x--|
--3---3-3-x-7----7--7--x-x-|--7---7-7-x-8---8---8---8---x--|
--4---4-4-x-7----7--7--x-x-|--7---7-7-x-9---9---9---9---x--|
--5---5-5-x-7----7--7--x-x-|--9---9-9-x-10--10--10--10--x--|
--x---x-x---5----5--5------|--x---x-x---x---x---x---x------|
--3---3-3------------------|--7---7-7---8---8---8---8------|


                                                  
--3---3-3-----------------|--------7-------------|
--3---3-3-x-7--7--7--7----|--10----8-------------|
--4---4-4-x-7--7--7--7----|--7-----9-------------|
--5---5-5-x-7--7--7--7----|--9-----10------------|
--x---x-x---5--5--5--5----|----------------------|
--3---3-3-----------------|----------------------|


                                                               
-------------------------------|------------------------------|
-------------------------------|------------------------------|
------7--9--------7-x-9--------|-----7--9--------7-x-9--7-----|
-------------------------------|--0--------0-0-0--------x-0-0-|
--7-7-------7-7-7--------7-7-7-|------------------------0-----|
-------------------------------|------------------------------|


                                                             
------------------------------|-----------------------------|
------------------------------|-----------------------------|
-----7--9--------7-x-9--7-----|-----7--9--------7-x-9--9----|
-----x-----------x-x----x-----|-----x-----------x-x----x----|
-----x-----------x-x----x-----|-----x-----------x-x----x----|
--7--7-----7-7-7-7-x----7-7-7-|--8--8-----8-8-8-8-x----8-8--|


                                                               
-------------------------------|------------------------------|
-------------------------------|------------------------------|
------7--9--------7-x-9--------|-----7--9--------7-x-9--7-----|
-------------------------------|--0--------0-0-0--------x-0-0-|
--7-7-------7-7-7--------7-7-7-|------------------------0-----|
-------------------------------|------------------------------|


                                                             
------------------------------|-----------------------------|
------------------------------|-----------------------------|
-----7--9--------7-x-9--7-----|-----7--9--------7-x-9--9----|
-----x-----------x-x----x-----|-----x-----------x-x----x----|
-----x-----------x-x----x-----|-----x-----------x-x----x----|
--7--7-----7-7-7-7-x----7-7-7-|--8--8-----8-8-8-8-x----8-8--|


                                                               
-------------------------------|------------------------------|
-------------------------------|------------------------------|
------7--9--------7-x-9--------|-----7--9--------7-x-9--7-----|
-------------------------------|--0--------0-0-0--------x-0-0-|
--7-7-------7-7-7--------7-7-7-|------------------------0-----|
-------------------------------|------------------------------|


                                                             
------------------------------|-----------------------------|
------------------------------|-----------------------------|
-----7--9--------7-x-9--7-----|-----7--9--------7-x-9--9----|
-----x-----------x-x----x-----|-----x-----------x-x----x----|
-----x-----------x-x----x-----|-----x-----------x-x----x----|
--7--7-----7-7-7-7-x----7-7-7-|--8--8-----8-8-8-8-x----8-8--|


                                                               
-------------------------------|------------------------------|
-------------------------------|------------------------------|
------7--9--------7-x-9--------|-----7--9--------7-x-9--7-----|
-------------------------------|--0--------0-0-0--------x-0-0-|
--7-7-------7-7-7--------7-7-7-|------------------------0-----|
-------------------------------|------------------------------|


                                                                 
-----------------------------|--7-----7-----7-----7-----7---x-x-|
-----------------------------|----8-----8-----8-----8-----8-x-x-|
-----7--9--------7-x-9--9-9--|------9-----9-----9-----9-----x-x-|
-----x-----------x-x---------|----------------------------------|
-----x-----------x-x---------|----------------------------------|
--7--7-----7-7-7-7-x---------|----------------------------------|


                                                             
--3---3-3-------------------|------------7---7---7---7---x--|
--3---3-3-x-7--7--7--7--x-x-|--7---7-7-x-8---8---8---8---x--|
--4---4-4-x-7--7--7--7--x-x-|--7---7-7-x-9---9---9---9---x--|
--5---5-5-x-7--7--7--7--x-x-|--9---9-9-x-10--10--10--10--x--|
--x---x-x---5--5--5--5------|--x---x-x---x---x---x---x------|
--3---3-3-------------------|--7---7-7---8---8---8---8------|


                                                            
--3---3-3------------------|------------7---7---7---7---x--|
--3---3-3-x-7----7--7--x-x-|--7---7-7-x-8---8---8---8---x--|
--4---4-4-x-7----7--7--x-x-|--7---7-7-x-9---9---9---9---x--|
--5---5-5-x-7----7--7--x-x-|--9---9-9-x-10--10--10--10--x--|
--x---x-x---5----5--5------|--x---x-x---x---x---x---x------|
--3---3-3------------------|--7---7-7---8---8---8---8------|


                                                            
--3---3-3------------------|------------7---7---7---7---x--|
--3---3-3-x-7----7--7--x-x-|--7---7-7-x-8---8---8---8---x--|
--4---4-4-x-7----7--7--x-x-|--7---7-7-x-9---9---9---9---x--|
--5---5-5-x-7----7--7--x-x-|--9---9-9-x-10--10--10--10--x--|
--x---x-x---5----5--5------|--x---x-x---x---x---x---x------|
--3---3-3------------------|--7---7-7---8---8---8---8------|


                                                                             
--3---3-3-----------------|--------7-------------|--------------------------|
--3---3-3-x-7--7--7--7----|--10----8-------------|----12----12----12----12--|
--4---4-4-x-7--7--7--7----|--7-----9-------------|----12----12----12----12--|
--5---5-5-x-7--7--7--7----|--9-----10------------|----14----14----14----14--|
--x---x-x---5--5--5--5----|----------------------|----14----14----14----14--|
--3---3-3-----------------|----------------------|--------------------------|


                                                                              
--------------------------|--------------------7--|--------------------------|
----10----10----10----10--|----7----7----10----8--|----8-----8-----8-----10--|
----11----11----11----11--|----7----7----7--------|----9-----9-----9-----11--|
----12----12----12----12--|----9----9----9--------|----10----10----10----12--|
----12----12----12----12--|----9----9----9--------|----------10----10----12--|
--------------------------|-----------------------|--------------------------|


                                                                             
--------------------------|--------------------------|----------------------|
----12----12----12----13--|----10----10----10----12--|----7----7----7----7--|
----12----12----12----12--|----11----11----11----11--|----7----7----7----7--|
----14----14----14----14--|----12----12----12----12--|----9----9----9----9--|
----14----14----14----14--|----12----12----12----12--|----9----9----9----9--|
--------------------------|--------------------------|----------------------|


                                                      
--------------------------|--------------------------|
----8-----8-----8-----10--|----12----12----12----12--|
----9-----9-----9-----11--|----12----12----12----12--|
----10----10----10----12--|----14----14----14----14--|
----10----10----10----12--|----14----14----14----14--|
--------------------------|--------------------------|


                                                                              
--------------------------|--------------------7--|--------------------------|
----10----10----10----10--|----7----7----10----8--|----8-----8-----8-----10--|
----11----11----11----11--|----7----7----7--------|----9-----9-----9-----11--|
----12----12----12----12--|----9----9----9--------|----10----10----10----12--|
----12----12----12----12--|----9----9----9--------|----------10----10----12--|
--------------------------|-----------------------|--------------------------|


                                                                             
--------------------------|--------------------------|----------------------|
----12----12----12----13--|----10----10----10----12--|----7----7----7----7--|
----12----12----12----12--|----11----11----11----11--|----7----7----7----7--|
----14----14----14----14--|----12----12----12----12--|----9----9----9----9--|
----14----14----14----14--|----12----12----12----12--|----9----9----9----9--|
--------------------------|--------------------------|----------------------|


                                                            
------------------------------------|----------------------|
----8---8---8--8--8--8--8---8-------|--15b-----------15b---|
----9---9---9--9--9--9--9---9---9---|----------------------|
----10--10--10-10-10-10-10--10--10--|----------------------|
----10--10--10-10-10-10-10--10--10--|----------------------|
------------------------------------|----------------------|


                                                                           
----------------------|----------------------|----------------------------|
--15------------15----|--12------------12----|----------------------------|
----------------------|----------------------|--12------12----12--12--12--|
----------------------|----------------------|----------------------------|
----------------------|----------------------|----------------------------|
----------------------|----------------------|----------------------------|


                                                                         
------------------------|------------------------|----------------------|
--15b---------17r---17--|--15----------15r---15--|--12----------15------|
------------------------|------------------------|----------------------|
------------------------|------------------------|----------------------|
------------------------|------------------------|----------------------|
------------------------|------------------------|----------------------|


                                                               
------------------------------|-------------------------------|
------------------------------|-------------------------------|
--12h-14--12----12/-11--------|------7--9--------7-x-9--------|
------------------------14----|-------------------------------|
------------------------------|--7-7-------7-7-7--------7-7-7-|
------------------------------|-------------------------------|


                                                              
------------------------------|------------------------------|
------------------------------|------------------------------|
-----7--9--------7-x-9--7-----|-----7--9--------7-x-9--7-----|
--0--------0-0-0--------x-0-0-|-----x-----------x-x----x-----|
------------------------0-----|-----x-----------x-x----x-----|
------------------------------|--7--7-----7-7-7-7-x----7-7-7-|


                                                              
-----------------------------|-------------------------------|
-----------------------------|-------------------------------|
-----7--9--------7-x-9--9----|------7--9--------7-x-9--------|
-----x-----------x-x----x----|-------------------------------|
-----x-----------x-x----x----|--7-7-------7-7-7--------7-7-7-|
--8--8-----8-8-8-8-x----8-8--|-------------------------------|


                                                              
------------------------------|------------------------------|
------------------------------|------------------------------|
-----7--9--------7-x-9--7-----|-----7--9--------7-x-9--7-----|
--0--------0-0-0--------x-0-0-|-----x-----------x-x----x-----|
------------------------0-----|-----x-----------x-x----x-----|
------------------------------|--7--7-----7-7-7-7-x----7-7-7-|


                                                              
-----------------------------|-------------------------------|
-----------------------------|-------------------------------|
-----7--9--------7-x-9--9----|------7--9--------7-x-9--------|
-----x-----------x-x----x----|-------------------------------|
-----x-----------x-x----x----|--7-7-------7-7-7--------7-7-7-|
--8--8-----8-8-8-8-x----8-8--|-------------------------------|


                                                             
------------------------------|-----------------------------|
------------------------------|-----------------------------|
-----7--9--------7-x-9--7-----|-----7--9--------7-x-9--9-9--|
--0--------0-0-0--------x-0-0-|-----x-----------x-x----x-x--|
------------------------0-----|-----x-----------x-x----x-x--|
------------------------------|--7--7-----7-7-7-7-x----7-7--|


                                                                   
----------------------------------|-------------------------------|
----------------------------------|-------------------------------|
--9r9-9-9r9-9-9r9-9-9r9-9-9r9-9-9-|------7--9--------7-x-9--------|
--x---x-x---x-x---x-x---x-x---x-x-|-------------------------------|
--x---x-x---x-x---x-x---x-x---0-0-|--7-7-------7-7-7--------7-7-7-|
--8---8-8---8-8---8-8---8-8-------|-------------------------------|


                                                             
------------------------------|-----------------------------|
------------------------------|-----------------------------|
-----7--9--------7-x-9--7-----|-----7--9------7-7--7-7-7-7--|
--0--------0-0-0--------x-0-0-|---------------x-x--x-x-x-x--|
------------------------0-----|---------------x-x--x-x-x-x--|
------------------------------|--7--------7-7-7-7--7-7-7-7--|


                                                                          
---------------------------------|-------------------|------------------||
---------------------------------|-------------------|------------------||
-----7h9-9h7-7-9-7-7-9-7-7-9-7-7-|-------------------|------------------||
-----x---x---x-x-x-x-x-x-x-x-x-x-|-------------------|------------------||
-----x---x---x-x-x-x-x-x-x-x-x-x-|--7----------------|------------------||
--8--8---8---8-8-8-8-8-8-8-8-8-8-|-------------------|------------------||

h=hammer on
/=slide
b=bend
comments
print report bad tab
3 comments total.
0 reply
fender sender wrote on November 17 2004, 12:00 am

if you want my email its fendersender@fsmail.net

0 reply
locked away wrote on January 4 2005, 12:00 am

ive been playing for a while and i think that your tab is quit good but ive noticed an error or two in the tab......its not very but it can screw up a beginner if you know what i mean

P.S. i like your work
+_+
-

0 reply
Fender555 wrote on December 24 2006, 02:19 pm

Kool TAB M8 well done u must have tried hard to make this .



P.S. Locked away is a bender

I want to post or [tab]
guest
You may want to rate the tab now too:
select rating
Please do not post tabs as comments. Select "correction" instead!