Oops, an error
Loading. Please wait.

Greatest Hits Bass Tab

30,632 views 45 this week
15 commentsread comments
1 2 3 4 5
worth learning
x 12
Autoscroll
+/-
esc
set tempo
stop
Contributor
Difficulty
intermediate
Hey! There's an official Ultimate Guitar app which is ideal
for learning songs when you're away from computer. Get the app
WARNING: You are trying to view
                                    content from Ultimate-Guitar.com
                                    in an unauthorized application,
                                    which is prohibited.

                                    Please use an official Ultimate
                                    Guitar Tabs application for iPhone,
                                    iPad or Android to access legitimate
                                    chords, guitar, bass, and drum tabs
                                    from Ultimate-Guitar.com database.

                                    Type "ultimate guitar tabs" in Apple
                                    App Store's or Android Market's
                                    search to find the application.
greatist hits 2003
crag 14      all songs are standard tuning
/-\ = Slide         p = pop or pulloff
SP = Slap
X = Mute/Harmonic
r = Rest
h = hammer on
~ =let ring
UNDER THE BRIDGE
chorus
g|-6-------4--------4--------------|-6------4-------4------------------|
d|-4---2-2---2--------2-4-4-4-4----|-4--2-2---2-------2-4-4-4h6p4h6p4--|
a|-------------4-2-----------------|------------4-2--------------------|
e|---------------------------------|-----------------------------------|

g|-6-------4--------4--------------|-6------4-------4------------------|
d|-4---2-2---2--------2-4-4-4-4----|-4--2-2---2-------2-4--------------|
a|-------------4-2-----------------|------------4-2--------------------|
e|---------------------------------|-----------------------------------|

g|------------------|-------------------------------|
d|------------------|-------------------------------|
a|------------------|----------4-0-0----------------|
e|-0------7----4-5--|-0------7-----------------==---|

verse 2

g|------------------|---------------|
d|------------------|---------------|
a|------------------|---------4-0-0-|   play this part twice but at the end 
e|-0------7----4-5--|-0-----7-------|   this on the end 
play chorus twice after that               g|------7h9------------ 
                                           d|-----------------
                                           a|----------------
                                           e|-------------

Outro

G|---9----------------7-----------5--------9---9-----7----------5h7p5-----|
D|-7---7--10-7-5-7-5-----5-3-5/7----7-5------7---7-5---5-3--5/7-------7-5-|
A|---------------------------------------0--------------------------------|
E|------------------------------------------------------------------------|

G|---9----------------7-----------5--------9---9-----7--------------------|
D|-7---7--10-7-5-7-5-----5-3-5/7----7-5------7---7-5---5-3---7------------|
A|---------------------------------------0-------------------0------------|
E|------------------------------------------------------------------------|

GIVE IT AWAY

INTRO

first three bars not played
                   
g|-dont-play---|-----------------------------------|
d|-------------|-----------------------------------|
a|-------------|-----------------------------------|
e|-------------|----6/19------5/17-----------------|

VERSE  0:11-0:42
  
G|-----------12\-----------|-----------12\--------|
D|-------/14---------------|-------/14------------|
A|-0---X----------0-3--0-3-|-0---X----------X-0-3-|
E|-------------------------|----------------------|
   t   t   p p   t t t t t t   t   t  p  p    t t t
G|-----------12\-------------|-----------12\--------|
D|-------/14-----------------|-------/14------------|     PLAY VERSE
A|-0---X---------X-0-3-X-0-3-|-0---X----------X-0-3-|       3 TIMES
E|---------------------------|----------------------|

CHORUS  0:42-0:53
  
g|--------|----------------------------------------|
d|--------|----------------------------------------|
a|-0------|----------------------------------------|
e|--------|--3/5-----------3/5----------3/5--------|

VERSE  0:53-1:25
 
G|-----------12\-----------|-----------12\--------|
D|-------/14---------------|-------/14------------|
A|-0---X----------0-3--0-3-|-0---X----------X-0-3-|
E|-------------------------|----------------------|
   
G|-----------12\-------------|-----------12\--------|
D|-------/14-----------------|-------/14------------|     PLAY VERSE
A|-0---X---------X-0-3-X-0-3-|-0---X----------X-0-3-|       3 TIMES
E|---------------------------|----------------------|

CHORUS    1:25-1:35

  
g|--------|----------------------------------------|
d|--------|----------------------------------------|
a|-0------|----------------------------------------|
e|--------|--3/5-----------3/5----------3/5--------|

There is a small rest from 1:35-1:45
and then this is played while the guitar solo is played

GUITAR SOLO    1:45- 2:06

g|------------------------|------------------------|----------------------|
d|------------------------|------------------------|----------------------|
a|------------10\---------|-----------10\----------|-----------10\--------|
e|-0--0-3/12------0-3-0-3-|-0--0-3/12------0-3-0-3-|-0--0-3/12-----0-3-0-3|

g|-------------------------|
d|-------------------------|
a|------------10\----------|
e|-0--0-3/12-------0-3-0-3-|

g|------------------------|------------------------|----------------------|
d|------------------------|------------------------|----------------------|
a|------------10\---------|-----------10\----------|-----------10\--------|
e|-0--0-3/12------0-3-0-3-|-0--0-3/12------0-3-0-3-|-0--0-3/12-----0-3-0-3|

g|--------------------------------|
d|--------------------------------|
a|--------------------------------|
e|-0-10p0-9p0-7p0-5p0-4p0-3p0-2p0-|

THEN THE VERSE   2:06-2:38


G|-----------12\-----------|-----------12\--------|
D|-------/14---------------|-------/14------------|
A|-0---X----------0-3--0-3-|-0---X----------X-0-3-|
E|-------------------------|----------------------|

G|-----------12\-------------|-----------12\--------|
D|-------/14-----------------|-------/14------------|     PLAY VERSE
A|-0---X---------X-0-3-X-0-3-|-0---X----------X-0-3-|       3 TIMES
E|---------------------------|----------------------|

Nothing is played from 2:38-2:48

VERSE 2:48-3:30

G|-----------12\-----------|-----------12\-------------------|
D|-------/14---------------|-------/14-----------------------|
A|-0---X----------0-3--0-3-|-0---X----------X-0-3------------|
E|-------------------------|---------------------------------|
   
G|-----------12\-------------|-----------12\-----------------|
D|-------/14-----------------|-------/14---------------------|     PLAY VERSE
A|-0---X---------X-0-3-X-0-3-|-0---X----------X-0-3----------|       4 TIMES
E|---------------------------|-------------------------------|

FINAL CHORUS  3:30-4:12
   
G|----------12\-------------|----------12\------------|
D|------/14-----------------|------/14----------------|
A|-0--X---------X-0-3-X-0-3-|-0--X----------X-0-3-----|
E|--------------------------|-------------------------|

G|----------12\--------------|----------12\-----------|
D|------/14------------------|------/14---------------|
A|-0--X----------X-0-3-X-0-3-|-0--X---------X-0-3-----|
E|---------------------------|------------------------|

G|-----------12\--------------|----------12------14--12--12\-|
D|-------/14------------------|------/14-------14--14--14----|
A|-0--X-----------X-0-3-X-0-3-|-0--X-------------------------|
E|----------------------------|------------------------------|

G|----------12\-------------|----------12\------------|
D|------/14-----------------|------/14----------------|
A|-0--X---------X-0-3-X-0-3-|-0--X----------X-0-3-----|
E|--------------------------|-------------------------|

G|----------12\------------|----------12\-----------------|
D|------/14----------------|------/14---------7P0-5P0-4P0-|
A|-0--X---------X-0-3-X-0-3|-0--X---------X-0-------------|
E|-------------------------|------------------------------|

G|----------12\-------------|----------12\------------|
D|------/14-----------------|------/14----------------|
A|-0--X---------X-0-3-X-0-3-|-0--X----------X-0-3-----|
E|--------------------------|-------------------------|

G|----------12\--------------|------------12\--------------|
D|------/14------------------|--------/14------------------|
A|-0--X---------X-0-3-X-0-3--|-0--X-X--------------0-3-0---|
E|---------------------------|-----------------0-3-------3-|

OUTRO  4:12-END
G|----------12\-------------|----------12\------------|
D|------/14-----------------|------/14----------------|
A|-0--X---------X-0-3-X-0-3-|-0--X----------X-0-3-----|
E|--------------------------|-------------------------|

G|----------12\--------------|------------12\--------------|
D|------/14------------------|--------/14------------------|
A|-0--X---------X-0-3-X-0-3--|-0--X-X--------------0-3-0---|
E|---------------------------|-----------------0-3-------3-|

G|----------12\-------------|----------12\------------|
D|------/14-----------------|------/14----------------|
A|-0--X---------X-0-3-X-0-3-|-0--X----------X-0-3-----|
E|--------------------------|-------------------------|

G|----------12\--------------|-----------------------------------------|
D|------/14------------------|-----------------------------------------|
A|-0--X---------X-0-3-X-0-3--|-0-0-3P0-5P0-6P0-7P0-10P0-11P0----12-----|
E|---------------------------|-----------------------------------------|

CALIFORNICATION
Intro           Play this 10  as a 5 on the g string as well, some parts i changed
                   \/
G)------9-9--7h9-7-------7--7----|------9-9-7h9-7------10-10-7--| x2
D)--7-7-----------10----------10-|--7-7----------10-------------|
A)--------------------8-8--------|-------------------8-8--------|
E)-------------------------------|------------------------------|

Verse 1

G)------9-9--7h9-7-5------7--7----|------9-9-7h9-7---------10-10-7--| x2
D)--7-7------------------------10-|--7-7-----------10---------------|
A)--------------------8-8---------|-------------------8-8-----------|
E)--------------------------------|---------------------------------|

G)---------------------------------|
D)---------------------------------|
A)--3-3----------5-5---------------|
E)------3-3--1-1-------------------|

G)------9-9--7h9-7-5------7--7--5--|------9-9-7h9-7-5-----10-10-7--| x2
D)--7-7----------------------------|--7-7--------------------------|
A)--------------------8-8----------|------------------8-8----------|
E)---------------------------------|-------------------------------|

Prechorus

G)----------------------------------|------------------------------------|
D)--7-77-7-7-9-10---------10-9------|-7-77-7-7-9-10---------10/14-12-10-9|
A)----------------8-88-8-------10---|---------------8-88-8---------------|
E)----------------------------------|------------------------------------|

G)----------------------------------|------------------------------------|
D)--7-77-7-7-9-10---------10-9------|--7-77-7-7-9-10---------10-9--------|
A)----------------8-88-8-------10---|----------------8-88-8-------10-----|
E)----------------------------------|------------------------------------|

G)----------------------------------|-----------------------10-10-10-10-10-|
D)--7-77-7-7-9-10---------10-9------|--7-77-7-7-9-10-----------------------|
A)----------------8-88-8-------10---|----------------8-88-8----------------|
E)----------------------------------|--------------------------------------|

Chorus

G)------------------|-------------------|
D)------------------|-------------------|
A)--3-3-----5-5-----|--3-3--------5-----|
E)------3-3-----5-5-|------3-1-3----5---|

SCAR TISSUE
INTRO               
G|----------------------------------------------------------------------|
D|-15--15-15-15---------------------15--15-15-15------------------------|
A|--------------15-17-17-17-17--15--------------15h17------17-17-17h15--|
E|----------------------------------------------------------------------|

Verse 1:
G|---------|-------------------|---------------------|------------------|
D|---------|-------------------|---------------------|------------------|
A|-----12/-|-8-x-8-8-----------|-3h5-5-5-5-5-5-8-5---|-8-x-8-8----------|
E|---------|---------5-x-5-x-8-|-------------------8-|---------5-x-5-x8-|

                        Chorus
G|--------------------|-------------------|-------------------|
D|--------------------|-------------------|-------------------|
A|-3h5-5-5-5-5-----5--|-8-x-8-8-----------|-5-5-5-5-5-5-8-5---|
E|-------------5-8--8-|---------5-x-5-x-8-|-----------------8-|

G|-------------------|-------------------|
D|-------------------|-------------------|
A|-8-x-8-8-----------|-5-5-5-5-5-5-8-5---|
E|---------5-x-5-x-8-|-----------------8-|

Verse 2:
G|-------------------|---------------------|-------------------|
D|-------------------|---------------------|-------------------|
A|-8-x-8-8-----------|-3h5-5-5-5-5-5-8-5---|-8-x-8-8-----------|
E|---------5-x-5-x-8-|-------------------8-|---------5-x-5-x-8-|
                         Chorus
G|---------------------|-------------------|-------------------|
D|---------------------|-------------------|-------------------|
A|-3h5-5-5-5-5-5-8-5---|-8-x-8-8-----------|-5-5-5-5-5-5-8-5---|
E|-------------------8-|---------5-x-5-x-8-|-----------------8-|

G|-------------------|-------------------|--------------------|-----------|
D|-------------------|-------------------|--------------------|-----------|
A|-8-x-8-8-----------|-5-5-5-5-5-5-8-5---|-8-8-8-8-8-8--------|-5-5-5-8-8-|
E|---------5-x-5-x-8-|-----------------8-|-------------x-8--8-|-----------|

Guitar Solo 1
G|-19-19-19-19-17-|-14-14-14-14-14-|--9--9-9-9-9-|---------------|
D|--0--0--0--0--0-|--0--0--0--0--0-|-------------|------12-------|
A|----------------|----------------|-------------|----12---125-7-|
E|----------------|----------------|-8--8-8-8-8--|-10------------|

Verse 3:
G|-------------------|---------------------|-------------------|
D|-------------------|---------------------|-------------------|
A|-8-x-8-8-----------|-3h5-5-5-5-5-5-8-5---|-8-x-8-8-----------|
E|---------5-x-5-x-8-|-------------------8-|---------5-x-5-x-8-|
                               Chorus
G|---------------------------|-------------------|-------------------|
D|---------------------------|-------------------|-------------------|
A|---5-5-5-5-5-------5-5-----|-8-x-8-8-----------|-5-5-5-5-5-5-8-5---|
E|-8------------5-8------8-5-|---------5-x-5-x-8-|-----------------8-|

G|-------------------|-------------------|
D|-------------------|-------------------|
A|-8-x-8-8-----------|-5-5-5-5-5-5-8-5---|
E|---------5-x-5-x-8-|-----------------8-|

Verse 4:
G|--------------------|-------------------------|------------------|
D|---------7-x-7---10-|-------------------------|------------------|
A|-8-x-8-8-------x-10-|---------------------5---|-8-x-8-8----------|
E|--------------------|-8h10-10-10-10—x-5-8---8-|---------5-x-5-x8-|
                            Chorus
G|------------------------|-------------------|-------------------|
D|---------/12-10---------|-------------------|-------------------|
A|------5---------12-x-10-|-8-x-8-8-----------|-5-5-5-5-5-5-8-5---|
E|-8h10-------------------|---------5-x-5-x-8-|-----------------8-|

G|-------------------|-------------------|
D|-------------------|-------------------|
A|-8-x-8-8-----------|-5-5-5-5-5-5-8-5---|
E|---------5-x-5-x-8-|-----------------8-|

Guitar Solo 2:
G|-19-19-19-19-17-|-14-14-17-14-14-|--9--9-9-9-9-|
D|--0--0--0--0--0-|--0--0--0--0--0-|-------------|
A|----------------|----------------|-------------|
E|----------------|----------------|-8--8-8-8-8--|

G|-----------------------------|-19-19-19-21-19-|-14-14-17/19-17-14-17-|
D|-------12-12--12--12---------|--0--0--0--0--0-|--0--0--0--0--0--0--0-|
A|-----------------------------|----------------|----------------------|
E|-10-10------10--10---10---10-|----------------|----------------------|


G|--9--9-9-9-9-|--------------|
D|-------------|--------------|
A|-------------|----------5-7-|
E|-8--8-8-8-8--|-10-10-10-----|

Verse 5:
G|-------------------|---------------------|-------------------|
D|-------------------|---------------------|-------------------|
A|-8-x-8-8-----------|-3h5-5-5-5-5-5-8-5---|-8-x-8-8-----------|
E|---------5-x-5-x-8-|-------------------8-|---------5-x-5-x-8-|
                     Chorus
G|-----------------|-------------------|-------------------|
D|------/12--10--7-|-------------------|-------------------|
A|-5-5-------------|-8-x-8-8-----------|-5-5-5-5-5-5-8-5---|
E|-----------------|---------5-x-5-x-8-|-----------------8-|

G|-------------------|-------------------|
D|-------------------|-------------------|
A|-8-x-8-8-----------|-5-5-5-5-5-5-8-5---|
E|---------5-x-5-x-8-|-----------------8-|

Guitar Solo 3 (outro)
G|-19-19-19-19-17-|-14-14-14-14-14-|--9--9-9-9-9-|------------------------|
D|--0--0--0--0--0-|--0--0--0--0--0-|-------------|------12---12--12--12---|
A|----------------|----------------|-------------|------------------------|
E|----------------|----------------|-8--8-8-8-8--|-10-10---10--10--10--10-|

G|-19-19-19-21-21-17-|--9--9-9-9-9-|------------------------|
D|--0--0--0--0--0--0-|-------------|------12---12--12--12---|
A|-------------------|-------------|------------------------|
E|-------------------|-8--8-8-8-8--|-10-10---10--10--10--10-|


G|-19-19-19-21-17-|-14-14-17/19-17-19-17/-|--9--9-9-9-9-|
D|--0--0--0--0--0-|--0--0--0--0--0--0--0--|-------------|
A|----------------|-----------------------|-------------|
E|----------------|-----------------------|-8--8-8-8-8--|

G|------------9-------------|-19-19-19-19-17-|----9----10--9----|---------|
D|------12--------12-12--12-|--0--0--0--0--0-|---------------10-|---------|
A|--------------------------|----------------|------------------|---------|
E|-10-10---10---10---10--10-|----------------|-8-8---8-----8----|-10------|

SOUL TO SQUEEZE
Intro
G|-14--------14----14h16-14-------------------------------------------|
D|-----14h16----16----------------------------------------------------|
A|----------------------------0-0-0-0-0-0-0-0-0-0-0-0-0-0.............|
E|--------------------------------------------------------------------|

Verse
G|-----------------------------------------------|
D|----------------0-2-3--------------------------|
A|----------3-2-3-------1---5-5---5-8---8--------|
E|-1-1--3h5---------------------5-----6---8--3-6\|

Verse (variation)
G|------------------------3-3-3------------------------------------|
D|----------------0-2-3--------------------------------------------|
A|----------3-2-3-------1--------5-5---5-8---8---10----------8-----|
E|-1-1--3-5--------------------------5-----6---8----8-6-8h10---10-8|

1st Chorus
G|---------------------------------------------------|
D|---7--8-10-----7-----------------------------------|
A|-8----------------8-10--5-5-5-5-7-8---------10-----|
E|-----------8----------------------6-6--8h10----10-8|

G|----------------------------------------------|
D|---7--8-10-----7h8p7--------------------------|
A|-8-------------------8-10---5-5-5-5-7-8-------|
E|-----------8--------------------------5-5-5-6\|

2nd Chorus
G|-----------------------------------------------------|
D|---7--8-10-----7-------------------------------------|
A|-8----------------8-10--5-5-5-5-7-8-----------10-----|
E|-----------8----------------------6-6-6--8h10----10-8|

G|------------------------------------------------|
D|---7--8-10-----10-8-7---------------------------|
A|-8-------------------10\5-5-5-5-7-8-------------|
E|-----------8------------------------5-5-5-6-6-6\|

Guitar Solo
G|-----------------------------------------------|
D|----------------0-2-3--------------------------|
A|----------3-2-3-------1---5-5---5-8---8--------|
E|-1-1--3-5---------------------5-----6---8--3-6\|

G|-------------------------------------------------|
D|----------------0-2-3----------------------------|
A|----------3-2-3-------1---5-5---5-8---8----------|
E|-1-1--3-5---------------------5-----6---8-8-8-8-8|

Bridge
G|--7---10/12---------5------5----|
D|-------8/10-----5h7----5h7---7--|     x3
A|-5-----------------------------3|
E|--------------------------------|
   sp    p        s   p  s   p s s

G|--7---10/12------------|
D|-------8/10------------|
A|-5---------------------|
E|-------------5-5-5-6-6\|
   sp    p

3rd Chorus
G|: -----------------------------------------------------------|
D|: --7--8-10-----7-7-8-7-----------------7--------------------|
A|: 8--------------------8-10\5-5-5-5-7h8---------------10-----|
E|: ----------8-----------------------------6-6-6--8h10----10-8|

G|---------------10/12-10--------------------------------------------------|
D|---7---8---10---------------------7-8-10-8-7-----------------------------|
A|8----8---8-----------------7-8-10------------10--5-5-5-5-5-7-8-----------|
E|-------------------------8-------------------------------------5-5-5-6-6-|

G|-------------10/12-10----------------------------------------------------|
D|--7---8---10--------------------7-8/10-7h8----------------7--------------|
A|8---8---8----------------7-8-10------------10\5-5-5-5-7h8--------------10|
E|-----------------------8------------------------------------6-6-6-8h10---|


G|------------10/12-10--------------------------------------------------|
D|---7-7-8-10------------10-12-10--8-10-8--7-8-7------------------------|
A|-8---------------------------------------------5-5-5-5-5-7-8----------|
E|--------------------8----------------------------------------5-5-5-6\1|

OTHERSIDE
Intro
g|--------------------------------------|
d|--------------------------------------|
a|----------------------3-3-3-----------|
e|-5--5-5--3--1--1-1-1--------3-3-3-----|

Chours1&2
g|-------------------------------------------|
d|-------------------------------------------|
a|--------------------3--3-3---3-2-----------|
e|-5--5-5--3--1--1-1---------3-----3---------|play twice

g|--------------------------------------|
d|--------------------------------------|
a|---------------------------3--3-3-2---|
e|-5--5-5--3--1--1-1--2-----------3-3-3-|

Chours 3
g|---------------------------------------------------|
d|---------------------------------------------------|
a|---------------------------------3--3-3-3-2---3-2--|
e|-5--5-5-5--3--1--1-1-1--2----------------3---------|play twice

g|------------------------------------------------|
d|------------------------------------------------|
a|--------------------------3--3-3-3-2----3-2-----|
e|-5--5-5-5--3--1--1-1-1--2-----------3-3-----3-3-|

Verse
g|----------------------------|
d|-7-7-7-777/14-14-14-141414\-|
a|----------------------------|
e|----------------------------|play three times

g|--------------------|
d|--------------------|
a|--------------------|
e|-3~~~~-----5~~~~----|

g|---------------------------|
d|-7-7-7-777/14-14-14-141414-|
a|-0-0-0-000-----------------|
e|---------------------------|play three times

g|----------------------------------------------------|
d|----------------------------------------------------|
a|----------------------------------------------------|
e|-3-3----5-5--3-3---5-5---3-3-33333333--5-5-55555555-|

bridge
g|-------------------------------------|
d|-------------------------------------|
a|--7-5-7---7-5-7---------------10-9-5-|
e|0-------0-------5-7-8-8-8-7-8--------|

g|--------------------------------------------------|
d|------------------------------------------------0-|
a|--7-5-7---7-5-7---------------10-9-7-9-10-9-------|
e|0-------0-------5-7-8-8-8-7-8---------------------|

g|----------------------------------------|
d|----------------------------------------|
a|--7-5-7---7-5-7------------------10-9-5-|
e|0-------0---------5-7-8-8-8-7-8---------|

g|---------------------------------------|
d|---------------------------------------|
a|--7-5-7---7-5-7-----------------10-9-5-|
e|0-------0---------5-7-8-8-8-7-8--------|

Outro/last chorus

g|------------------------------------------------------|
d|------------------------------------------------------|
a|------------------------------------3--3-3-3-2----3-2-|
e|-5--5-5-5--3-3-1--1-1-1-2-2---------------3-----------|play twice

g|-------------------------------------------------------|
d|-------------------------------------------------------|
a|-------------------------------------3--3-3-3-2----3-2-|
e|-5--5-5-5-3-3--1--1-1-1-2-2----------------3-3-----3-3-|

g|------------------------------------------------------|
d|------------------------------------------------------|
a|------------------------------------3--3-3-3-2-2--3-2-|
e|-5--5-5-5-3-3--1--1-1-1-2-2-----------------3---------|

g|---------------------------------------------------------|
d|---------------------------------------------------------|
a|---------------------------------3--3-3-3-2---------3-2--|
e|-5--5-5-5--3--1--1-1-1--2---------------3-3-3------3-3---|

SUCK MY KISS

Intro and Guitar Solo
G|---------------------------|
D|---------------------------|
A|------------1--------------|
E|--1---3------------1---3---| x3

						All x2
G|--------------------------7h9-9--|
D|---------3-3-3-3--5/7-7-7--------|
A|-3h5-5-5-------------------------|
E|---------------------------------| x1
Main Verse Riff
G|--------------------------|-------------------------------|
D|--------------------------|-------------------------------|
A|--------------------------|-----------------------1h3-1---|
E|--1---3-33--1-----3--33---|--1---3-33--1-----3--3---------|

Mid Verse
G|------------------|--------------------|
D|-------3----------|-3-------3------4---|
A|---------------3--|------------4-------|
E|--1---------------|--------------------|

End Of Verse
G|-------------------------|--------------------|
D|-------------------------|--------------------|
A|-------------------------|-------------1------|
E|--1---3-33--1-----3-33---|--1--3----3---------|

---------------------------------------------------------------------
Chorus 1		    	x3	     x1
G|-----------------------------|-----------|
D|----------5-----5------------|-----------|
A|-------------5-----5---------|-----------|
E|--0--0----------------0-5-5--|--0--0--0--|

				x1
G|-----------------------------|
D|----------5-----5------------|
A|-------------5-----5---------|
E|--0--0----------------0-5-5--|


Chorus 2			x3	     x1
G|-----------------------------|-----------|
D|----------5-----5------------|-----------|
A|-------------5-----5---------|-----------|
E|--0--0----------------0-5-5--|--0-----0--|


				x1(Just Before Guitar Solo)
G|-----------------------------|-----------|
D|----------5-----5------------|-----------|
A|-------------5-----5---------|--1--------|
E|--0--0----------------0-5-5--|-----------|

Chorus 3			x3	    x1
G|-----------------------------|-----------|
D|----------5-----5------------|-----------|
A|-------------5-----5---------|-----------|
E|--0--0----------------0-5-5--|-------0---|

				x1
G|-----------------------------|
D|----------5-----5------------|
A|-------------5-----5---------|
E|--0--0----------------0-5-5--|

BY THE WAY
Intro/Slow Chorus        never use a pick

G-1010101010101010-99999999-----------------------------------------------|
D---------------------------7777777777777777------------------------------|
A-------------------------------------------------------------------------|
E-------------------------------------------------------------------------|

Intro continued
G-1010101010101010------------------9999999999999999\--------------|
D------------------1010101010101010--------------------------------|
A------------------------------------------------------------------|
E------------------------------------------------------------------|

g|----------55555555-222222222222/-1717171717171717-------------------|
d|-33333333----------------------------------------1414141414141414---|
a|--------------------------------------------------------------------|
e|--------------------------------------------------------------------|

g|--------------------------------------|
d|-191919191919191919191919191919\------|
a|--------------------------------------|
e|--------------------------------------|

Verse
G---------------------------------------------------------------------|
D---------3------------------3-----------------3----------------------|
A-----3h5--3h5-0h3------3h5---0h3------------3h5--3h5-0h3--00-3h5556666|
E-0-0----------------0-0----------3h5----0-0----------------------------|

Chorus
G------------------------------------------------------|
D--------7-1010101010101010-1212121212212121212-10-----|
A-888888-------------------------------------------12--|
E------------------------------------------------------|
Chorus continued
G------------------------------------------------|
D--------7-10101010101010-77777777-888888--------|
A-888888----------------------------------10-----|
E------------------------------------------------|

PARALLEL UNIVERSE
INTRO
G-------------|-------------------------------------------------|
D-X-X-X-X-X-X-|-10-10-10-10-10-10-10-10-10-10-10-10-10-10-10-10-|
A-------------|-------------------------------------------------|
E-------------|-------------------------------------------------|


G----------------------------------|--------------------------
D-10101010101010101010101010101010-|8888888888888-------------
A----------------------------------|--------------------------
E----------------------------------|--------------------------


G-------------------------------------------------|-------------------------
D-12-12-12-12-12-12-12-12-12-12-12-12-12-12-12-12-|-13-13-13-13-13-1313-13-
A-------------------------------------------------|-----------------------10
E-------------------------------------------------|-------------------------

                                                                ENDBASS NO.1
G------------------------------|12-12-12-12-12-10-10-10-10------------------
D------------------------------|--------------------------13-13-13-13-12-12-
A-10-10-10-10-10-10-10-10-10-10|--------------------------------------------
E------------------------------|--------------------------------------------

 

                                                      BASS FILL 1 1ST TIME
                                                      BASS FILL 2 2ND TIME
 


                                                      BASS FILL 1



CHORUS
    a    
G----------------------------------------------|----------------------------
D-10-10-10-10-10-10-10-10-10-10-10-10-10-------|----------------------13-13-
A----------------------------------------10-10-|11-11-11-1-11-11-11-11------
E----------------------------------------------|----------------------------


     
G------------------------------------------|--------------------------------
D------------------------------------------|--------------------------------
A-10-10-10-10-10-10-10-10-10-10-10-10-10-10|10-1010-10-10-10-10-10-10-10-10-
E------------------------------------------|--------------------------------


     

G---------------------------------------|----------------------------------|
D10-10-10-10-10-10-10-10-10-------------|------------------13-13-13-13-13--|
A---------------------------10-10-10-10-|11-11-11-11-11-11---------------10|
E---------------------------------------|----------------------------------|


 
                                          END BASS FIG.2
G-----------------------------|------------------------|------------------
D-----------------------------|------------------------|-------------------
A10-10-10-10-10-10-10-10-10-10|10-10-10-10-10-10-10-10-|10-10-10-10-10-10--
E-----------------------------|----------------------10|-----------------10



INTERLUDE

G-----------------------------------------  
D10-10-10-10------------------------------  (SWITCH HIT)
A-----------10-10-10-10-11-11-11-11-\8-8-8  BASS THEN GUITAR  X4
E-----------------------------------------




                                                
                                                BASS FILL 3 ,2ND TIME
                                                BASS FILL 4, 3RD TIME
                                                BASS FILL 5, 4TH TIME

G---------------------------------------|----------------------------|
D-10-10-10-10-10-10-10-10-10-10-10-10-10|8-8-8-8-8-8-8-8-8-8-8-8-8-8-8
A---------------------------------------|----------------------------|
E---------------------------------------|----------------------------|



G--------------------------------------------
D-13131313131313131313-----------------------
A----------------------101010101010101010----
E--------------------------------------------


BASS FILL 1 
G-12-12-12-12-10-10-10-10-----------------------|
D------------------------13-13-13-13-12-12-13-13|
A-----------------------------------------------|
E-----------------------------------------------|


BASS FILL 2
G--------------------------------------------|
D---------------------13-13-13-13-12-12-12-12|
A-10-10-10-10-10-10-10-----------------------|
E--------------------------------------------|


BASS FILL 3
G---------------------------------------------------|
D-10-10-10-10-10-10-10-10-10-10-10-10-10-10-10-12-12|
A---------------------------------------------------|
E---------------------------------------------------|


BASS FILL 4
G--------------------------------------------|
D-10-10-10-10-10-10-10-10-10-8-8-8-----------|
A---------------------------------10-10-10-10|
E--------------------------------------------|


BASS FILL 5
G------------------------------------------------|
D-10-10-10-10-10-10-10-10-10-10-10-10-12-12-12-12|
A------------------------------------------------|
E------------------------------------------------|

MY FRIENDS
intro
G:--10/12--10----------10---10----------------9-------9--10---10-----------|
D:-------------12---12-------------------10------12----------------------10|
A:------------------------------10---10/--------------------------10---10--|
E:-------------------------------------------------------------------------|

        1. My friends are so depressed....
G:---------------10---10-------------------------------------9--10---10----|
D:-10---12---12------------12-----12--------10------10--12-----------------|
A:------------------------------------10h12------12----------------------10|
E:-------------------------------------------------------------------------|


G:------10h12-10h12--10--9------------------10---9--10--12-----------------|
D:--------------------------12--12--12--12-------------------12--10----12--|
A:---10--------------------------------------------------------------------|
E:-------------------------------------------------------------------------|


G:-----10----------------------------|
D:-12--------------------------------|
A:---------8---0---10---R------3--4--|
E:--------------------------5--------|

  %Sign
   *verses
G:-----------------------------------------------------------------4/5--4--|
D:o----------3----3---5----5--------------------2---3---3-4-5---5---------7|
A:o--5----5---------5---------3--3------3-4-5------------------------------|
E:------------------------------------5------------------------------------|


G:--------------------------------|
D:----------3-------3--5----5-----|
A:--5----5-------5-------------3--|
E:--------------------------------|


   *Chorus
G:-------------------------------------------------------------------------|
D:--------5----------7------7--7-----------------7--7--7--7----7---7-------|
A:-3---3-------0--0-----0-0-------3----3-3h5--5--------------0---0-------3-|
E:-------------------------------------------------------------------------|
  I  love   all  of  you...


                                                   3rd time to CODA
                                                   (dont take repeat)
G:------------------9--9-9-9\----------------------------------------|
D:----5---------7------------------------7--------7--7--7--7--7--7--o|
A:-3--------0-----------------3---3--3/5----5--0--------------------o|
E:-------0-----------------------------------------------------------|


  *Guitar Solo
G:-------------------------------------------------------------------------|
D:------------------------------12----10-12-10-9---------------------------|
A:-5--5--5--7--8--8--8-9--10-10----10-------------12\-5----5--7--8---R---8-|
E:-------------------------------------------------------------------------|


G:-------------------------------------------------------------------------|
D:----------12-------------------------------------------------------------|
A:---10--10----0-2--3--3--r--3--4--5--5--5--7--8--8--8--8----10-10-10-0-2-3|
E:10------------------------------------------------------10---------------|


G:---------------------------------------------------------|
D:---------------------------------------------------------|
A:-3--r----3-4-5--5--5--7--8--8--r--8--9--10--10--10---8---|
E:-------5-------------------------------------------------|


   Bridge
G:-------------------------------------------------------------------------|
D:---------------------------------------------------------------------11--|
A:--7--7--7--7--7--7--7--7--10-10-10-10-10-10-10-10--9--9--9--9--9--9----9-|
E:-------------------------------------------------------------------------|


G:-------------------------------------------------------------------------|
D:-------10-------10----10-------------------------------------------------|
A:-8--8-----8--8-----8--------------------10------------------------9------|
E:-------------------------8--8--8--8--8-------8-10--7--7--7--7--7-------7\|

                                         D.S. % al
                                         CODA
G:---------------------------------------------------|
D:----------------------------------------10---------|
A:-------------------------8--8--8--8--8-----8--7\5--|
E:1--1--1--1--1--1--1--1/----------------------------|

G:-------------------------------------------------------------------------|
D:--------------------------5--5--5--5--9/10-10-10-10-10-10----------------|
A:--5--5--5--5--8--8--8--8-----------------------------------5--5--5--5--8-|
E:-------------------------------------------------------------------------|


G:-------------------------------------------------------------------------|
D:--------5--5--5--5--9/10-10-10-10-10-10-10-------------------------------|
A:--8--8--------------------------------------5--5--5--5--3--3--3--3--2--2-|
E:-------------------------------------------------------------------------|


G:-------------------------------------------------------------------------|
D:----3--3--3--3-------------------------------5--5--5--5--9/10-10-10-10-10|
A:-2--------------5--5-5--5--5--7/8-8-8-8-8-8------------------------------|
E:-------------------------------------------------------------------------|


G:---|-------------------|--19--19--19------------------19--|
D:10-|-0-----------------|----------------------------------|
A:---|-------------------|----------------0-----------------|
E:---|-------------------|----------------------------------|


HIGHER GROUND
intro
MAIN RIFF:
          G-|------------------|----------------------|
          D-|----2-------5----7|-----2-------5---7----|
          A-|------------------|----------------------|
          E-|-0-0--0-3-3--5-5--|-0-0---0-3-3---5---5--|
              S SP S s S ps S P  s s p s s s p s p s

simile for rest of song

          Fill 1: (Variation to Main Riff)
          G-|-----------------------------|
          D-|-----2-----------------------|
          A-|-------------3---------------|
          E-|-0-0---0-3H5---5-4-3---------|
          Fill 2:
          G-|--------------7-----6--------|
          D-|-----2-----------------------|
          A-|----------5-5---4-4----------|
          E-|-0-0---0---------------------|

          Interlude after Main Riff:
          G-|------------------------------------------------|
          D-|-----4--------7-----9-----4--------7----9-------|
          A-|------------------------------------------------|
          E-|-2-2---2--5-5---7-7----2-2---2--5-5--7-7--------|

          G-|-------------------7---7-----------------------|
          D-|------7------7--------------5H7----------------|
          A-|---------------5--5---5---5--------------------|
          E-|--5-5---5--5-----------------------------------|

          Chorus: (Not Slapped)
          Reapeat 2 Times
          G-|---------------------------------|
          D-|---------------------------------|
          A-|----------------7-7-7-7-7-5------|
          E-|-5-5--3-5-3-5-3-------------7-6--|

          On Third time Play: (not sure if it's right)
          G-|--------------------------------9-11-9---------------|
          D-|--------------------------------------11-10--9-8-9-8-|
          A-|----------------7-7-7-7-7-7-7-9-------------9---9----|
          E-|-5-5--3-5-3-5-3--------------------------------------|


          G-|------------------------|
          D-|-9--7-------------------|
          A-|-------9-8-7------------|
          E-|-------------10-9-8-7-10|

          Outro:(Not Slapped, repeat a couple of times)
          G-|--------------------|
          D-|--------------------|
          A-|--------------------|
          E-|--0-0-0-0-3-5-0-----|

UNIVERSALLY SPEAKING
Intro/Verse
G---7-7-7-7-7-7-+---6-7--7-7-7-7-7-7-7--6-7*---------|
D--0-0-0-0-0-0-0-4---------------------5-------------|
A-------------------------7-7-7-7-7-7-7--------------|
E----------------------------------------------------|

Chorus
G------14--14---14-h-16-p-14-13---------13--13---13-h-14-p-13-----|
D----14--14--14----------------14----14---14--14-------------14---|
A-12------------------------------12---------------------------12-|
E-----------------------------------------------------------------|

G------------------------------------------|-----------------------|
D----------------------------------------'-|3-3-3-3-3--------------|
A-10--10-10-10--10-10---14-14---14---14--'-|---------5-5-5-5-5-5-0-|
E------------------------------------------|-----------------------|

Solo
G----14-----14-----14----12--0--12--0--12--12---0-12--0--12--------|
D------14-----14-----------12-----12---------12-----12-------------|
A---------0------0-------------------------------------------------|
E------------------------------------------------------------------|

G------------------------------------|
D-12----12----12--12---12----12------|
A---0-----0---------0----0-----------|
E----10----10--------10---10---------|

ROAD TRIPPIN
intro
G|----------------5---------|----------------5----------|
D|--------5-4-2---------5-4-|--------5-4-2--------------|
A|----7-7-------3---3-2-----|----7-7-------3---3-2------|
E|--0-----------------------|--0-------------------3-2--|

Verse 1 (Entire Intro x4 then the second bar x1)

Bridge 1
G|----------------------------------------------| (x2)
D|----------------------------------------------|
A|--0--0--0-0--2--2--2-2--3--3--3-3--5--5--5-5--|
E|----------------------------------------------|

Verse 2 (Intro x3 with some variations)

Bridge 2 (Same as Bridge 1)

Cello Solo
G|-----------|
D|-----------|
A|--7--------|
E|---5-8-10--|

FORTUNE FADED
intro
MAIN RIFF
G|--------------------------------------------------------------------------
D|--------------------------------------------------------------------------
A|-2-2-xxxx-2-2-xxxx-2-2-xxxx-5-x-5-x-5-x-555-------------------------------
E|--------------------------------------------55555-55555-3333-------------

Chourus
G|--------------------------------------------9--7--9-7-0-------------------
D|-----------9-7-5--55-5-5-5-5/9--99-9--9-7-5-------------------------------
A|--7--77-7-----------------------------------------------------------------
E|--------------------------------------------------------------------------

Chourus end
G|---------------------------------------------------9-9-9--9-9-9-----------
D|-----------9-7-5--55-5-5-5-5/9--99-9--9-7-5--------9-9-9--9-9-9-----------
A|--7--77-7-----------------------------------------------------------------
E|--------------------------------------------------------------------------

SAVE THE POPULATION
intro
Intro/Verse

G|---------------------------|
D|---------------------------|
A|----1-1-1-1/5-5-5-5-5-5----|
E|-3-3-----------------------| (Verse with some improvisation at end of riff)

Pre chorus

G|-----------------------------------|
D|-----------------------------------|
A|----------------11-11-11-11-11-11--|
E|-33-33-33-33-33--------------------|x2

	Then play

G|---------------------------------------------------|
D|---------------------------------------------------|
A|66-66-66-66-66-33-33-33-33-33-55-55-55-55-55-55-55-|
E|---------------------------------------------------|x1

Chorus

G|------------------------------------------|
D|1-1-1-1-1-1/3-3-3-3-3/5-5-5-5-5-5-5-5-5-5-|
A|------------------------------------------|
E|------------------------------------------|

thats the whole album
if you think there are mistakes email me on crag 14
comments
print report bad tab
15 comments total. Showing first comments.
+1 reply
metpajoe wrote on August 7 2006, 02:48 pm

you just copied and pasted other peoples work on this site...and some of them aren't even correct...oh yeah by the way is in drop d tuning and flea doesn't use a pick for parallell universe

0 reply
crag14 wrote on August 7 2006, 05:16 pm

If u fink u know so much about the album do it urself

0 reply
bassman2013 wrote on August 8 2006, 06:51 am

meh...

I want to post or [tab]
guest
You may want to rate the tab now too:
select rating
Please do not post tabs as comments. Select "correction" instead!