Oops, an error
Loading. Please wait.

Greatest Hits Tab

20,871 views 72 this week
2 commentsread comments
1 2 3 4 5
worth learning
x 7
add to favorites launch autoscroll
font size
0
reset
Autoscroll
+/-
esc
set tempo
stop
Contributor
Difficulty
intermediate
WARNING: You are trying to view
                                    content from Ultimate-Guitar.com
                                    in an unauthorized application,
                                    which is prohibited.

                                    Please use an official Ultimate
                                    Guitar Tabs application for iPhone,
                                    iPad or Android to access legitimate
                                    chords, guitar, bass, and drum tabs
                                    from Ultimate-Guitar.com database.

                                    Type "ultimate guitar tabs" in Apple
                                    App Store's or Android Market's
                                    search to find the application.
#----------------------------------PLEASE NOTE--------------------------------#
#This file is the author's own work and represents their interpretation of the#
#song. You may only use this file for private study, scholarship, or research.#
#-----------------------------------------------------------------------------#
#-- File created with Instab - http://www.pconline.com/~smcarey/instab.html --#
#-----------------------------------------------------------------------------#

Author/Artist: Red Hot Chili Peppers
Title: Greatest Hits Album 


p pull off
h hammer on
P pluck
A Arpeggio
U Arpeggio Up
/ slide up
\ slide down
b bend
r release bend
v vibrato
p.m. palm mute
() Bass
|-| repeat previous bar


Super Slinky String Gauges (42,32,24,16,11,11)
Pick = Heavy (Small)

Bedroom Tuning (eb A D G B E)
Play in relatively same position as tab.



Under The Bridge
Tuning (eb A D G B E), Down ~ 10%
Live Standard Tuning, Down ~ 10%
Two guitars arr. on one.  
Key: Intro (B + G), Verse/Chorus (B + Eb)



----|-------------------------------------------------------------------------
----|-3------------------------2-----------------------3-----------3h5p3------
----|------2---7-------------------------3---------------------2---------2----
----|--------------7----------------4-------4--------------4-----4------------
----|-5--5---5--------------------4----4-------9-7-5-2-4h5---5-----------5----
----|-----------------10-8-6-5-3----------------------------------------------
  
  
  Intro Let Ring                                                                            




------------------------------------------------------------------------------
------------------------------3-----------3-----------------------------------
-----------------3--------------------2------2--------------------3-----------
-4/----------4-----4--------------4-----4---------------------4-----4---------
-4/7--7\---4---4------9-7-5-2-4h5---5-----------------------4---4-----9-7-5-2-
---------3--------------------------------------10-8-6-5-3--------------------
        
             
    
                                                     

-----------------------------------------------------|----------------------------
--3-----------3h5p3----------------------------------|----------------------------
----------2---------2-----------------3-------3------|----------------------------
------4-----4---------4-----------4------4------4----|----------------------------
--4h5---5-----------5-4/7--7\---4---4------4------4--|----------------------------
------------------------------3----------------------|----------------------------







----|-------------------------------------------------------------------------
----|-9---------------------5---9-------9---5---9---9---9---9---5---9---9-----
----|---------------13----------9---8---9-------9---8---9---8-------9---8-----
----|-----13--------11------7---6---6---6---7---6---6---6---6---7---6---6-----
----|-11--11--9-/11-----11----------------------------------------------------
----|-------------------12-(13--13--12--13--13--13--12--13--12--13--13--12----
  
  
  Verse                                                                             

 


-----------|-4---|------------------------------------------------------------
-9---5-----|-4-v-|------------------------------------------------------------
-9---------|-----|------------------------------------------------------------
-6---7-----|-6---|------------------------------------------------------------
-----------|-7---|------------------------------------------------------------
-13--13)---|(8)--|------------------------------------------------------------
             A                                                                  
                                             





----|----4-----2--------------------------------5h7p5---|
----|-5--5--4--4--4-4h5p4---4------5---5--4--5--------5-|
----|---------------------------------------------------|
----|---------------------------------------------------|
----|-7-----2-------------2----1-/4--4----6--7----------|
----|---------------------------------------------------|
  
  
  Verse      

  

                                                               

----|----4-----2------------------------------5------|-4--|
----|-5--5--4--4--4-4h5p4---4------5---5---5----5----|-4--|
----|------------------------------------------------|----|
----|--------------------------------------7---------|-6--|
----|-7-----2-------------2----1-/4--4-----7------16-|-7--|
----|------------------------------------------------|(8)-|
                                                       A                      





----|------------------------------------9-9-9---|----|
----|-----12--12---12----------------10--101010--|----|
----|-11----------------20-20-20-20--------------|xxxx|
----|-11--14--14---14---21-21-21-21--------------|xxxx|
----|-11----------------21-21-21-21--9-----------|----|
----|----(13--13---13)---------------------------|----|
 
  
  Chorus                                                                     



----|-----------------------0-----|--|
----|-5---5---3---0---0-0h2---1---|--|
----|-----------------------------|--|
----|-7---5---5---7-------------7-|--|  
----|-------------8---------------|--|
----|(13--11--11--9)--------------|--|
  
  
   Bridge                                                                    




----|----------------|--------------------------------------------------------
----|-17---15---12---|--------------------------------------------------------
----|-14---14---12---|--------------------------------------------------------
----|-15---14---12---|--------------------------------------------------------
----|-15---12---12---|--------------------------------------------------------
----|----------------|--------------------------------------------------------
  
  
  Interlude                                                                          

                                                                          


----|-----------------------0-----|--|-3p0---|---------|-3p0---|-------------|------------
----|-5---5---3---0---0-0h2---1---|--|-----5-|-1h3p1---|-----5-|-------------|------------
----|-----------------------------|--|-------|---------|-------|-------------|------------
----|-7---5---5---7-------------7-|--|-------|-------7-|-------|-------------|------------
----|-------------8---------------|--|-------|---------|-------|-15h17p15-12-|------------
----|(13--11--11--9)--------------|--|-------|---------|-------|-------------|------------
                                                                              
 
  Outro Chords Strum                  w/ Fills                                                                               




----|------|
----|-2----|
----|------|
----|-7----|
----|------|
----|(6)---|
      A                                                                       
        



                       


Give It Away
Tuning (eb A D G B E), Down ~ 26.7%
Live Standard Tuning, Down ~ 26.7%
Two guitars arr. for one.
Key: (B + Eb)



----|-5--5-5-------11---11---11---11---11---11---|----------------------------
----|-x--x-x--7/8----8b----8b---8b---8b---8b---8b|----------------------------
----|-9--9-9-------------------------------------|----------------------------
----|-7--7-7-------------------------------------|----------------------------
----|-0--0-0--10---------------------------------|----------------------------
----|--------------------------------------------|----------------------------
        
  
  Intro (No vocals, Standard Method)
                                                                      


----|-5--5-5------------------------------------|------------------------------------
----|-x--x-x--7/8-------------------------------|------------------------------------
----|-9--9-9-------2----2-----2----2---2--------|------------------------------------
----|-7--7-7------------------------------------|------------------------------------
----|-0--0-0--10------5----5----5----5----5-5---|------------------------------------
----|-------------------------------------------|------------------------------------
                                                                              




----|-----------------------------------------------|---------------------------------------
----|-----------------------------------------------|---------------------------------------
----|-----7--6--5--------------------------7--8--9--|---------------------------------------
----|-7---7--7--7-------------------7---7--7--7--7--|---------------------------------------
----|---------------10--10--10--10------------------|---------------------------------------
----|(6---13-12-11--11--11--11--11--6---6--11-11-12)|---------------------------------------
                                                                              
  
  Verse



----|------------------------------------------------------|------------------------------------
----|------------------------------------------------------|------------------------------------
----|-----7--6--5-------------------------7--6-------------|------------------------------------
----|-7---7--7--7-------------------7--7--7--7-------------|------------------------------------
----|---------------10--10--10--10--------------10--10--10-|------------------------------------
----|(6---13-12-11--11--11--11--11--6--6--11-10-11--11--11)|------------------------------------
       
  


                                                                       

----|-----|--|-8-8--5--5-5--|-5bbb-|--|----------------------------------------
----|-----|--|-5-5--5--5-5--|-5bbb-|--|----------------------------------------
----|-----|--|--------------|------|--|----------------------------------------
----|-----|--|--------------|------|--|----------------------------------------
----|--12-|--|--------------|------|--|----------------------------------------
----|-(6)-|--|--------------|------|--|----------------------------------------
                                                                              
  
  Chorus
 


----|-----------------------------|--|--------------------------|--------------------
----|---------------1--1-1--1--1--|--|--------------------------|--------------------
----|------x-x-6/7----------------|--|-------9--8--9--7--5------|--------------------
----|-7-7--x-x-6/7----------------|--|-7--7--7--7--7--7--7--7---|--------------------
----|-7-7-----------7--7-7--7--7--|--|-7--7---------------------|--------------------
----|(6-------11/12-9--9-9--9--9-)|--|(6-----13-11-13-11-9--6)--|--------------------
                                                                                                                                                          
  Outro                                                                    








Californication
Tuning (eb A D G B E), Down ~ 10%
Live Standard Tuning, Down ~ 10%
Two guitars arr. on one.
Key: (D + F)


----|--------------------------------------|---------------------------------------------------
----|-----0-1------------------------------|---------------------------------------------------
----|----------------------------0-2-------|---------------------------------------------------
----|---7----------------------------------|---------------------------------------------------
----|-0-----7--7-5h7p5-3-------3---5--5----|-8-5----------------------------------------------
----|---------------------(14)----------9--|---------------------------------------------------
                           

   Verse                                                                            



----|-----0-------------------------1--|---------------------------------------
----|--------------3----------------3--|---------------------------------------
----|----------------------------------|---------------------------------------
----|---7---7----7---7---7---7----7----|---------------------------------------
----|-7--------5-------5---5----7------|---------------------------------------
----|----------------------------------|---------------------------------------
     

  Verse Out                                                                            




----|---------|---------------------------------------------------------------
----|-5---5---|---------------------------------------------------------------
----|---------|---------------------------------------------------------------
----|-7---3---|---------------------------------------------------------------
----|---------|---------------------------------------------------------------
----|(13--9-)-|---------------------------------------------------------------
     

  Bridge      

                                                                      


----|-----------------|-------------------------------------------------------
----|-----3-------1---|-------------------------------------------------------
----|-5-------7-------|-------------------------------------------------------
----|-5---7---7---7---|-------------------------------------------------------
----|-----5-------7---|-------------------------------------------------------
----|(13--11--11--6-)-|-------------------------------------------------------
  

  Chorus                                                                            




----|-------|--|------|-------------------------------------------------------
----|----7--|--|----7-|-------------------------------------------------------
----|-6--7--|--|-6--6-|-------------------------------------------------------
----|-7--7--|--|-7----|-------------------------------------------------------
----|-------|--|------|-------------------------------------------------------
----|-------|--|------|-------------------------------------------------------
  

  Solo Chords         

         

                                                          

----|-------------------------------------------------------------------------
----|-10--14---------10--14---------------------------------------------------
----|-------------------------------------------------------------------------
----|-------------------------------------------------------------------------
----|---------21br-----------21br--21-21-21-21p19-16-16----16-18/19--21br-21--
----|---------------------------------------------------16--------------------
  

  Solo

                                                                            

----------------------14------------------14br--14-14---17-16-14-11/13-14-11/-
--------10--14-16/17--------10--14-16/17--------------------------------------
------------------------------------------------------------------------------
------------------------------------------------------------------------------
-19-16------------------------------------------------------------------------
------------------------------------------------------------------------------
               

                                                               

-12-9--11/12-9--6/9---6/9---6/9--11/12--9---14br-11/12-9--11/12--9---6/7--5--11/12--
------------------------------------------------------------------------------------
------------------------------------------------------------------------------------
------------------------------------------------------------------------------------
------------------------------------------------------------------------------------
------------------------------------------------------------------------------------
                                                                              




-9-/10-9--5-|-------------------------------------------------------------------
------------|-------------------------------------------------------------------
------------|-------------------------------------------------------------------
------------|-------------------------------------------------------------------
------------|-------------------------------------------------------------------
------------|-------------------------------------------------------------------
                                                                              






Scar Tissue
Tuning (eb A D G B E), Down ~ 10%
Live Standard Tuning, Down ~ 10%
Two guitars arr. on one.
Key: (D + A#)


----|---5--5-5-5----------------------------5--5-5-3------------------------|-----------
----|---6--6-6-6-5--4/6----6--6--6--6p5-----6--6-6-6-5--4/6-----------------|-----------
----|(2)--------------------------------------------------------------------|-----------
----|(0)-----------------------------------------------------17p15-17p15----|-----------
----|------------3--4/5------------------------------3--4/5-----------------|-----------
----|(13---------9--10/11--11-11-11-11p10-13---------9--10/11-----------9-\)|-----------
  
  
  Intro/Verse      

                                                                                                                                                     
                                                                           
                                                                      
----|---------1-------|-------------------------------------------------------
----|-1---5---3---5---|-------------------------------------------------------
----|-----------------|-------------------------------------------------------
----|-7-------7-------|-------------------------------------------------------
----|-8---3---5---3---|-------------------------------------------------------
----|(13--9---11--9)--|-------------------------------------------------------
  
  
  Chorus                                                         




----|---------------|--|------------------------------------------------------
----|---------------|--|------------------------------------------------------
----|---7---5---7---|--|------------------------------------------------------
----|---7---5---7---|--|------------------------------------------------------
----|---------------|--|------------------------------------------------------
----|--(11--13--11)-|--|------------------------------------------------------                                                         
  
  Solo Chords





----|------------------------------------------------------|
----|-14\--10---10\8--8------8-/10---10----10/12-12/13-13--|
----|------------------------------------------------------|
----|------------------------------------------------------|
----|------------------------------------------------------|
----|------------------------------------------------------|
  
  
  G2 Solo 1   

                                                                

----|---------------------------------------------------------------------------------------------
----|-14/15--15\13--13\10--10--10\8---8----14\10-10---14/15--16/17---14\10-10---14\8---8----14\10-
----|---------------------------------------------------------------------------------------------
----|---------------------------------------------------------------------------------------------
----|---------------------------------------------------------------------------------------------
----|---------------------------------------------------------------------------------------------
  
  
  Solo 2                                                                      



-----------------------|--------------------------------------------------------
--10--14/17-17/18-18---|--------------------------------------------------------
-----------------------|--------------------------------------------------------
-----------------------|--------------------------------------------------------
-----------------------|--------------------------------------------------------
-----------------------|--------------------------------------------------------
                                                                              





----|-15/17--17\15-14/15--17\15----------------------------------------------------
----|---------------------------16/17--17\15-15--13/15-15\13-13/15-15-15\13-13\10--
----|------------------------------------------------------------------------------
----|------------------------------------------------------------------------------
----|------------------------------------------------------------------------------
----|------------------------------------------------------------------------------
 
  
  Solo 3                                                                      



-----------------------------------------------------------------------------------
-10--14\8---8----14\10-10--------8-/10--10-10-10-----------------------------------
-----------------------------------------------------------------------------------
-----------------------------------------------------------------------------------
-------------------------17/19\17----------------16/19\17--17/19--15--15--15/17----
-------------------------14/16\14--------------------------------------------------
                                                                              



-------------------------------------------------------|-----------------------------
----8-/12--16/18\17-17--14\13--/15\-10--10/13\8---/10--|-----------------------------
-------------------------------------------------------|-----------------------------
-------------------------------------------------------|-----------------------------
-12----------------------------------------------------|-----------------------------
-------------------------------------------------------|-----------------------------
                                                                              






Soul To Squeeze
Tuning (eb A D G B E), Down ~ 10%
Live Standard Tuning, Down ~ 10%
Two guitars arr. on one.
Key: (D + A#)



----|----------------------------------------------------|--------------------
----|-------------------------------------------5--------|--------------------
----|-----2---4br-2----------2------2----2--3/4----4h6p4-|--------------------
----|-7-2----------------2h4------2-----2----------------|--------------------
----|-0-----0--------0-0--------0------0-----------------|--------------------
----|----------------------------------------------------|--------------------
  
  
  Intro Let Ring                                                                       


----|--------------------------------------------------|----------------------
----|--------------------------------------------------|----------------------
----|-----2---4br-2----------2------2------------------|----------------------
----|---2----------------2h4------2------2---2----2----|----------------------
----|-0-----0--------0-0--------0------0---0-----------|----------------------
----|------------------------------------------4----4--|----------------------
                                                                              



----|-------------------------------------------5--------|--------------------
----|----------------------------------------------------|--------------------
----|-----2---4br-2----------2------2----2--3/6----4h6p4-|--------------------
----|---2----------------2h4------2-----2----------------|--------------------
----|-0-----0--------0-0--------0------0-----------------|--------------------
----|----------------------------------------------------|--------------------
     
                                                      
                   

----|---------------------------------------------------------|---------------
----|---------------------------------------------------------|---------------
----|-----2---4br-2----------2--6-6-6-6-6--6-6-6-6-6-6-6-6-6--|---------------
----|---2----------------2h4----7-7-7-7-7--7-7-7-7-7-7-7-7-7--|---------------
----|-0-----0--------0-0--------7-7-7-7-7--7-7-7-7-7-7-7-7-7--|---------------
----|--------------------------(6-6-6-6-6--6-6-6-6-6-6-6-6-6)-|---------------
   



                                                                           

----|-------------------------------------------------------------------------
----|---------1-1-1-----------5-5-----------6-6-6---------6-6-6-6-6-6-6-6-6-6-
----|-------x---------------x-5-5---------x-7-7-7-------x-7-7-7-7-7-5-5-5-5-5-
----|-------x-7-7-7---------x-5-5---------x-7-7-7-------x-7-7-7-7-7-7-7-7-7-7-
----|---------8-8-8--1/3-3----------/5-5--------------5-----------------------
----|(4--2----9-9-9-------------------------------7-)------------------------
                                                                    P.M.
 
  Verse  B               
                                                                        



--------------------------------------|-----------------------------------
-6-6--5-5-5-5-5-5-5-5-3-3-3-3-3-3-3-3-|-----------------------------------
-5-5--5-5-5-5-5-5-5-5-----------------|-----------------------------------
-7-7--5-5-5-5-5-5-5-5-8-8-8-8-8-8-8-8-|-----------------------------------
----------------------8-8-8-8-8-8-8-8-|-----------------------------------
---------------------(7-7-7-7-7-7-7-7)|-----------------------------------
                                                                              




----|----------------------------------------------------------------------------
----|---------1-1-1-----------5-5----------6-6h8p6-----------6-6-6-6-6-6-6-6-6-6-
----|-------x---------------x-6-6---------x-----------8----x-7-7-7-7-7-7-5-5-5-5-
----|-------x-7-7-7---------x-5-5---------x-----------x----x-7-7-7-7-7-7-7-7-7-7-
----|---------8-8-8--1/3-3---------7/5-5/-------------8--5-----------------------
----|(6--4----111111-------------------------------9-)---------------------------
                                                                              



--------------------------------------|--------------------------------
-6-6--5-5-5-5-5-5-5-5-3-3-3-3-3-3-3-3-|--------------------------------
-5-5--5-5-5-5-5-5-5-5-----------------|--------------------------------
-7-7--5-5-5-5-5-5-5-5-8-8-8-8-8-8-8-8-|--------------------------------
----------------------8-8-8-8-8-8-8-8-|--------------------------------
---------------------(7-7-7-7-7-7-7-7)|--------------------------------
       
         

                                                              




----|----------------|--|-----------------------------------------------------
----|-1---13--6---6--|--|-----------------------------------------------------
----|-----12--7---7--|--|-----------------------------------------------------
----|-7---14--7---8--|--|-----------------------------------------------------
----|-8---15---------|--|-----------------------------------------------------
----|(9)-------------|--|-----------------------------------------------------
  
  
  Chorus                                                                             





----|------------------------------------------------------------------------|
----|------------------------------------------------------------------------|
----|------------------------------------------17----------------------------|
----|-19\17-----17-18/19-------18/19-19-19---------16/17-------------19\17---|
----|-------20------------20------------------------------20--17-20----------|
----|------------------------------------------------------------------------|
  
  
  Solo (Double on high strings)




---------------------------------------------------------------------|
---------------------------------------------------------------------|
------------------------------------------17b18r17-------------------|
-----17-18/19--16/17-\15------18/19-19-19----------19-18/19-17-------|
-20-----------------------17-----------------------------------20-19-|
---------------------------------------------------------------------|






----|----------------------------------------------------|--|-------|---------
----|----------------------------------------------------|--|-------|---------
----|-7--7-7-7-5--5-5-5-5-5---5--5-5-5-5---5--5-5-5-5-5--|--|-5-----|---------
----|-7--7-7-7-5--5-5-5-5-5h7-7--5-5-5-5h7-7--7-7-5-5-5--|--|-5--8--|---------
----|----------------------------------------------------|--|----8--|---------
----|----------------------------------------------------|--|-------|---------
  
  
  Interlude                                                                            




----|--------6/10--|--|-11\8-\-5--|-11\-5-9-\-1--|----------------------------
----|--------------|--|-----------|--------------|----------------------------
----|--------------|--|-----------|--------------|----------------------------
----|-11/12--------|--|-----------|--------------|----------------------------
----|--------------|--|-----------|--------------|----------------------------
----|--------------|--|-----------|--------------|----------------------------




----|----------------|--|-----------------------------------------------------
----|-1---5---6---6--|--|-----------------------------------------------------
----|-----5---7---7--|--|-----------------------------------------------------
----|-7---5---7---8--|--|-----------------------------------------------------
----|-8--------------|--|-----------------------------------------------------
----|(9)-------------|--|-----------------------------------------------------
  
  
  Chorus Out                                                                            





Otherside
Tuning (eb A D G B E), Down ~ 10%
Live Standard Tuning, Down ~ 10%
Key: (D + A)



----|--------------------------------------------|
----|--------------------------------------------|
----|--------------------------------------------|
----|--------------------------------------------|
----|-7--7--7---12--12---14-12-10--7---5--5--5---|
----|--------------------------------------------|
  
  
  Intro 




----|------------------------------------------------|--|
----|------------------------------------------------|--|
----|------------------------------------------------|--|
----|------------------------------------------------|--|
----|-7--7--7---12--12---14-12-10--7---7--7-7--5-5-5-|--|
----|------------------------------------------------|--|
  
  
  Chorus


----|------------------------------------------------|--|
----|------------------------------------------------|--|
----|------------------------------------------------|--|
----|------------------------------------------------|--|
----|-7--7--7---12--12--12-19--19--19--14---14-14----|--|
----|------------------------------------------------|--|
  
 
  Chorus Out





----|----------15---|--|---------|--------------------------------------------
----|----13-12------|--|---------|--------------------------------------------
----|---------------|--|-7---9---|--------------------------------------------
----|---------------|--|-5---7---|--------------------------------------------
----|-15------------|--|---------|--------------------------------------------
----|---------------|--|---------|--------------------------------------------
                                                                              
  
  Verse                                                            

        


----|-----------------------------------------------|----------------------|--|------
----|-5--5--5---12--12--12--17-5--5----12--12--12---|-5--5--5---12--12--12-|--|------
----|-x--x--x------------------x--x-----------------|-x--x--x--------------|--|------
----|-6--6--6------------------6--6-----------------|-6--6--6--------------|--|------
----|-7--7--7---14--14--14-----7--7----14--14--14---|-7--7--7---14--14--14-|--|------
----|-----------------------------------------------|----------------------|--|------
                                                                              
  
  Interlude                         

                                                   


----|------------------------------------------------------------------------------------------
----|-----------------------------------------20--------------------20----------------20-------
----|-14--14-14--14-14--/-----21-21--21-21-21----21-21-21--21-21-21----21-21----21-21----21-21-
----|-x---x--x---x--x--------------------------------------------------------------------------
----|-12--12-12--12-12-------------------------------------------------------------------------
----|------------------------------------------------------------------------------------------
  

  Solo                                                                            



---------------|--------------------------------------------------
---------------|--------------------------------------------------
--21-21--21-21-|--------------------------------------------------
---------------|--------------------------------------------------
---------------|--------------------------------------------------
---------------|--------------------------------------------------
                                                                              







Suck My Kiss 
Tuning (eb A D G B E)
Live Standard Tuning
Key: (G + A#)



----|-----|-------------------------------------------------------------------
----|-----|-------------------------------------------------------------------
----|-12--|-------------------------------------------------------------------
----|-12--|-------------------------------------------------------------------
----|-13--|-------------------------------------------------------------------
----|-----|-------------------------------------------------------------------
  
  
  Verse                                                                            




----|-------------------|-----------------------------------------------------
----|-------------11-\--|-----------------------------------------------------
----|-13--13--14--10-\--|-----------------------------------------------------
----|-10--10--11--------|-----------------------------------------------------
----|-------------------|-----------------------------------------------------
----|-------------------|-----------------------------------------------------
  
  
  Bridge
                                                                             





----|---------------------------|--|---------|-------------|------------------
----|-------101010 101010-------|--|---------|-------------|------------------
----|-------9-9-9--9-9-9--------|--|-7----5--|-------------|------------------
----|-------7-7-7--7-7-7--------|--|-9br--5--|-------------|------------------
----|---------------------12-12-|--|---------|-------------|------------------
----|(1--1)---------------------|--|---------|(1--1--1--1)-|------------------
                                                                              
  
  Chorus                            End 1     End 2                 




----|-------------------------------------------------|--|--------------------
----|-------------------------------------------------|--|--------------------
----|-16/17-------------16/17-------------16/17-------|--|--------------------
----|-------------------------------------------------|--|--------------------
----|-------------------------------------------------|--|--------------------
----|-------16-16-16-16-------16-16-16-16-------16-16-|--|--------------------
  
  
  Solo                                                                         



----|-------------------------|--|--------------------------------------------
----|-------------------------|--|--------------------------------------------
----|-------------------------|--|--------------------------------------------
----|-16/17-17-17-16/17-17-17-|--|--------------------------------------------
----|-------------------------|--|--------------------------------------------
----|-------------------------|--|--------------------------------------------
       
                                                                       


----|-------------|--|-------------|------------------------------------------
----|-------------|--|-------------|------------------------------------------
----|-19-19-19-19-|3x|-21-19-19-19-|------------------------------------------
----|-17-17-17-17-|--|-17-17-17-17-|------------------------------------------
----|-------------|--|-------------|------------------------------------------
----|-------------|--|-------------|------------------------------------------





----|----------------17-18-19-20-21|
----|-17-18-19-20-21---------------|
----|------------------------------|
----|------------------------------|
----|------------------------------|
----|------------------------------|
     
     






By The Way
Tuning (eb A D G B E), Down ~ 10%
Live Standard Tuning, Down ~ 10%
Key: (D + A#)



----|-----------|--|-------------|--------------------------------------------
----|-----------|--|-------------|--------------------------------------------
----|-5--5------|--|-------------|--------------------------------------------
----|-7--5--7---|--|-------------|--------------------------------------------
----|-------7---|--|-19-19-17-17-|--------------------------------------------
----|-----------|--|-------------|--------------------------------------------
 

  Intro                                                                          




----|-----------|-------------------------------------------------------------
----|-------10--|-------------------------------------------------------------
----|-5--9--9---|-------------------------------------------------------------
----|-7--7--7---|-------------------------------------------------------------
----|-----------|-------------------------------------------------------------
----|-----------|-------------------------------------------------------------
    

                                                                                                                                  


----|---------|--|-------------|----5---|-5------|----------------------------
----|---------|--|-------------|-6--6---|-6------|----------------------------
----|-x-x-x-x-|--|-17-17-17-17-|-7------|--------|----------------------------
----|-x-x-x-x-|--|-------------|--------|--------|----------------------------
----|---------|--|-------------|--------|--------|----------------------------
----|---------|--|-------------|--------|--------|----------------------------
                                  m
  
  Verse                                                                            





----|-------------------------------|--------------------------------------------
----|-------------------------------|--------------------------------------------
----|-5---5---7----5----5---5---7---|--------------------------------------------
----|-7---5---7----7----5---7---8---|--------------------------------------------
----|-----------------------7-------|--------------------------------------------
----|-------------------------------|--------------------------------------------
  
  
  Chorus                                                                            




----|-------|--|--------------------------------------------------------------
----|-------|--|--------------------------------------------------------------
----|-------|--|--------------------------------------------------------------
----|-------|--|--------------------------------------------------------------
----|-4h5---|--|--------------------------------------------------------------
----|-------|--|--------------------------------------------------------------
  
  
  Fill                                                                            



----|-------------------------------|--------------------------------------------
----|-------------------------------|-------------------------------------------
----|-5---5---7----5----5---5---7---|-/--10--------------------------------------
----|-7---5---7----7----5---7---8---|-/--12--------------------------------------
----|-----------------------7-------|----12--------------------------------------
----|-------------------------------|--------------------------------------------
  
  
  Chorus                                                         
                                

  





Parallel Universe
G1,G2 Tuning (eb A D G B E), Down ~ 10%
Live Standard Tuning, Down ~ 10%
Key: (C + E)



----|----|----|----|----|----|---------------------------|
----|----|----|----|----|----|---------------------------|
----|----|----|----|----|----|---------------------------|
----|----|----|----|----|----|---------------------------|
----|-18-|-17-|-5--|-6--|-15-|10-10-10\8-8-8\6-6-6\5-5-5-|
----|----|----|----|----|-21-|---------------------------|
  
  
  Verse Heavy Palm Mute (Bass mimmicks guitar throughout.)                                                                 



----|----|----|---|---|----|----|----|-
----|----|----|---|---|----|-11-|-12-|-
----|----|----|---|---|----|-10-|-11-|-
----|----|----|---|---|----|----|----|-
----|-18-|-17-|-5-|-6-|-15-|----|----|-
----|----|----|---|---|-21-|----|----|-
  



----|--------------------|----------------------------------------------------
----|--------------------|----------------------------------------------------
----|--------------------|----------------------------------------------------
----|--------------------|----------------------------------------------------
-G1-|-3---6----1----10---|----------------------------------------------------
-G2-|-9---12---7----4----|----------------------------------------------------
  
 
  Chorus




----|-8---------|----------------------------------------------|--------------
----|-x---------|----------------------------------------------|--------------
----|-8---------|----------------------------------------------|--------------
----|-5---------|-13-13-13-13-13-------------------------------|--------------
----|-----------|-13-13-13-13-13-13-13-13-13-13\10-10-10-10-10-|--------------
----|-----------|----------------------------------------------|--------------
  
  
  Interlude                                                                           
      

                                                                    




Breaking The Girl
Acoustic Drop C# Tuning (c# ab db gb bb eb), Down ~ 10%
Live Standard/Drop C#, Down ~ 10%
Key: F# 


----|---------------------------------------------------------------9--9------7---|-
----|---------------------------------------------------8\----------x--x------x---|-
----|-6---6--6-----6-6-6-8--9---9--9\-9--8--8--7---7--7-7\-7-7-7----9--9-9--9-9-9-|-
----|-7---7--7-10\-7-7-7-9--10--10-9\-10-10-10-7---7--7-7\-7-7-7-7-------7--7---7-|-
----|-7---7--7-7-\-7-7-7-9---------8\----------5---5--5----5-5-5-7----------------|-
----|-----------------------------------------------------------------------------|-
  
  
  Intro/Verse 

                                                                           


----|-------------------------|-----------------------------------------|-----
----|-------------------------|-----------------9-----------------------|-----
----|-9---7-------9---7---9---|-9---7---9---7---7---9---7---9---7---10--|-----
----|-10--9---7---10--9---7---|-10--9---10--9---9---10--9---10--9---7---|-----
----|---------7---------------|-----7-------7-----------7-------7---8---|-----
----|-------------------------|-----------------------------------------|-----
  
  
  Chorus Chords                                                                             
                                                                       



----|------------------------|--|
----|------------------------|--|
----|---9--------10--10--10--|--|
----|---10-------10--10--10--|--|
----|------------------------|--|
----|------------------------|--|
  
  
  Interlude




----|--------------------|--|---------------------|--|
----|-17--13---17---13---|--|-12---13---12---13---|--|
----|--------------------|--|---------------------|--|
----|--------------------|2x|---------------------|2x|
----|-15--12---15---12---|--|-11---12---11---12---|--|
----|--------------------|--|---------------------|--|
  
  
  Outro






My Friends
G1 Acoustic Drop C# (c# ab db gb bb eb), Down ~ 10% 
G2 Electric Tuning (eb A D G B E), Down ~ 10%
Live Standard Tuning, Down ~ 10%
Two guitars arr. on one.
Key: (D + C#)


----|---------------------------------|-----------------|----------|------------
----|-----6-----------6---------------|-----------------|--2---2---|------------
----|-----8-----------8---------8-----|-----------------|----------|------------
----|---8-8------6h8--8---------6-----|---------6h8p6---|----------|------------
----|-6-----6-9---------9-----6-------|-----6h8-------8-|--9---8---|------------
----|---------------------(10------10-|-10h11)----------|-(11-11)--|------------
   
 
  Verse G1   
        
                                                                    


----|-----------------------------|-------------------------------------------
----|-2---6-----------------------|-------------------------------------------
----|-----5-----------------7-----|-------------------------------------------
----|-----8---------6----8--8-----|-------------------------------------------
----|-8---8-------8---------8-----|-------------------------------------------
----|(11)-------11-----13---------|-------------------------------------------
       
  
  Chorus  A                 A




----|-----------------------------------------------------|
----|-----------------------------------------------------|
----|-----------------------------------------------------|
----|-----------------------------------------------------|
----|-7/9-9-9-5-5/7\3-3-3/5-2v-2-2/3-3-3/5-5-7/9-9-9-9-9--|
----|-----------------------------------------------------|
  

  Interlude G2



-------------------------------------------|
-------------------------------------------|
------------------------------------20bvv--|
-------------------------------------------|
-9-9/12-12-12-12-12-12-12/14/10v-7---------|
-------------------------------------------|





----|---------------------------|
----|---------------------------|
----|-10--8---7---6---6---9-----|
----|-10--8---8---8---6---10--8-|
----|-8---6---8---9---8-------9-|
----|---------------------------|
  
  
  Bridge G1        





----|-----------------------------|--|
----|-----------------------------|--|
----|-----------------------------|--|
----|-----17----------16--17------|--|
----|-21------20--19----------15--|--|
----|-----------------------------|--|
   
  
  Outro G2         





----|-------------------------|
----|-6-----------------------|
----|-8-----------------------|
----|-8-----------------------|
----|-6-----6---------6-------|
----|----8-----8-(4)10-(4-13)-|
      
 
  End A G1                     







Higher Ground
Tuning (eb A D G B E)
Live Standard Tuning
Key: (A + A#)

----|--------------------------------------------------------|----------------
----|-----------------------14-------------------------------|----------------
----|-x-12--12--x-x-x-12h14-14--x-12--12--------12--------12-|----------------
----|-x-12--12--x-x-x-----------x-12--12--12h14-14--12h14-14-|----------------
----|--------------------------------------------------------|----------------
----|--------------------------------------------------------|----------------
  
  
  Intro   

         
  
                                                             
----|----------------------------------------------------------------------|--
----|-----------------------14---------------------------------------------|--
----|-x-12--12--x-x-x-12h14-14-x-x-x-x-14-14-14-14-14-14-14-14-14-14-14-14-|--
----|-x-12--12--x-x-x----------x-x-x-x-14-14-14-14-14-14-14-14-14-14-14-14-|--
----|----------------------------------------------------------------------|--
----|----------------------------------------------------------------------|--
                                                                              






----|---------------------------|--|--------------------------------------
----|---------------------------|--|--------------------------------------
----|---------------------------|--|--------------------------------------
----|---------------5--5-7-7-7--|--|--------------------------------------
----|---------------5--5-7-7-7--|--|--------------------------------------
----|(1-1-1--1-1-1)-------------|--|--------------------------------------
  
  
  Verse                                                                           






----|------------------------------|--|-------|---------------------------
----|------------10-10-10-12-12-12-|--|-10----|---------------------------
----|-x--9---9---9--9--9--9--9--9--|3x|-7-----|---------------------------
----|-x--7---7---7--7--7--9--9--9--|--|-7-----|---------------------------
----|------------------------------|--|-------|---------------------------
----|------------------------------|--|-------|---------------------------
  
  
  Verse Out                                                          





----|--------------------------------------|--|---------|---------------------
----|-10-101010-101010---------------------|--|-10--10--|---------------------
----|-9--9-9-9--9-9-9---------9---------9--|--|-9---7---|---------------------
----|-7--7-7-7--7-7-7---------9---------9--|--|-7---7---|---------------------
----|------------------7-7-7--7--7-7-7--7--|--|---------|---------------------
----|--------------------------------------|--|---------|---------------------
                                                                               
  
  Bridge                                                                 







Universally Speaking
Tuning (c# A D f# a d), Down ~ 10% 
Live Standard Down ~ 10%
Verse Key: G, Chorus Key: A



----|---------|---------------------------------------------------------------
----|-9---10--|---------------------------------------------------------------
----|-8---10--|---------------------------------------------------------------
----|-7---5---|---------------------------------------------------------------
----|-5---5---|---------------------------------------------------------------
----|---------|---------------------------------------------------------------
  
  
  Intro/Verse                                                                            



----|--------------|--|-------------|-------------------------------------------
----|--12--11--10--|--|------9---9--|-------------------------------------------
----|--7---7---8---|--|------9---9--|-------------------------------------------
----|--7---7---5---|--|-7--------9--|-------------------------------------------
----|--7---7---5---|--|-7-----------|-------------------------------------------
----|--------------|--|-------------|-------------------------------------------
  
  
  Chorus




----|-----------------------------------------------------------------|
----|-----------------------------------------------------------------|
----|-----------------------------------------------------------------|
----|-----------------------------------------------------------------|
----|-21-19-17-19--17-16--17--16-17--19--17--16-17--19\-12--12--12-12-|
-G2-|-11-11-6---------------------------------------------------------|
  
  
  Solo




----|--------------------------------------------------------------------|
----|--------------------------------------------------------------------|
----|--------------------------------------------------------------------|
----|---------------------------------------------------19--19-19--19-19-|
----|-21-19-17-19--17-16--17--16-17--19--17--16-17--19/------------------|
----|--------------------------------------------------------------------|





----|--------------------------------------------------------------------|
----|--------------------------------------------------------------------|
----|--------------------------------------------------------------------|
----|--------------------------------------------------------------------|
----|-21-19-17-19--17-16--17--16-17--19--17--16-17--16\-12--12-12--12-12-|
----|--------------------------------------------------------------------|





----|------------------------------------|
----|------------------------------------|
----|------------------------------------|
----|------------------------------------|
----|-12-10-9-10br--5--5--12--12/17-17---|
----|------------------------------------|






Road Trippin' 
Acoustic Standard Tuning (E A D G B E), Down ~ 10%
Live Standard Tuning, Down ~ 10%
Two guitars arr. on one.
Key: C
                                                                          

----|----3----3-----3-3-----------------|-------------------------------------
----|--------------------5----4----4-4--|-------------------------------------
----|-----------------------------------|-------------------------------------
----|-----------------------------------|-------------------------------------
----|-7-----7----7---------3----2-------|-------------------------------------
----|-----------------------------------|-------------------------------------
  
  
  Verse                                                                            




----|-------------------------------------------7--7------|-------------------
----|----------1--------------------------8--8--------8---|-------------------
----|-----------------------------------------------------|-------------------
----|-------7---------------------------------------------|-------------------
----|-----7----------7---7------7----7--------------------|-------------------
----|-5-----------7----7-----8----8-----------------------|-------------------
  
  
  Chorus 





----|----------3----------------------0--|--|-----------2--|-----------5--|
----|-8-----------2-------2--5-----------|--|--7-----------|--10----------|
----|------------------------------------|--|--------------|--------------|
----|------------------------------------|--|--------------|--------------|
----|-7-----7-----0----7-----3-----7-----|--|--5-----5-----|--9----7------|
----|---(7----------5-----------8)-------|--|-----5--------|-----8--------|
  
  
  Bridge                                     End 1          End 2





----|-------5-----5-----------------------|
----|-10-7--7--7--7---16--19---16--13--10-|
----|-------------------------------------|
----|-------------------------------------|
----|-9--5-----5------12--15---12--9---7--|
----|-------------------------------------|
     
 
  End 3  P            P   P    P   P   P






----|---3--------|--|
----|------------|--|
----|--------4---|--|
----|------------|--|
----|-7----7-----|--|
----|------------|--|
  
  
  Outro






Fortune Faded 
Tuning (c# A D f# a d), Down ~ 26.7%
Acoustic 1/2 Step Down Tuning (eb ab db gb bb eb), Dpwn ~ 26.7%
Live Standard Tuning, Down ~ 26.7%
Key: B



----|----|------------------------------------------------------------------|--
----|----|------------------------------------------------------------------|--
----|----|------------------------------------------------------19--19--19--|--
----|----|-----------------------------------19----19----19-----------------|--
----|-13-|-14-21-16--14--14-14---21--16--14-----21----21----21--------------|--
----|-12-|------------------------------------------------------------------|--
  
 
  Intro                                                         




----|--------------------------------------------------|-----------------
----|--------------------------------------------------|-----------------
----|--------------------------------------------------|-----------------
----|-----------------------------------19-----19------|-----------------
----|--14--21-16--14--14-14--21--16--14-----21-----21--|-----------------
----|--------------------------------------------------|-----------------
                                                                              




----|---------|--|------------------------------------------------------------
----|---------|--|------------------------------------------------------------
----|-8---7---|--|------------------------------------------------------------
----|-7---7---|--|------------------------------------------------------------
----|-5---4---|--|------------------------------------------------------------
----|---------|--|------------------------------------------------------------
   
  
  Verse                                                              




----|------------------------|-------------------------------------------------
----|-4--5-------------------|-------------------------------------------------
----|-----------8---8---8----|-------------------------------------------------
----|-7--5------9---7---9----|-------------------------------------------------
----|-7--5------5---5---5----|-------------------------------------------------
----|-8----------------------|-------------------------------------------------
  
  
  Chorus                                                                           
                                             






Save The Population 
Tuning (c# A D f# a d)
Live Standard Tuning
Key: G


----|-------------------------------------------------------------------------|
----|----------------------17----17-----------------------------15----15------|
----|-------------------------------------------------------------------------|
----|-17---20-----------------------------17--20------------------------------|
----|---------20---18-17------17----17-----------20---18-17--------17----17---|
----|-------------------------------------------------------------------------|
  

  Intro



-------------------------|---------------------------------------|----------------|
-------------------------|---------------------------------------|----------------|
-------------------------|---------------------------------------|-20-18----------|
----17---20--------------|--19--19---19b20r19-17-----------------|-------20-19-18-|
------------20----18-17--|--------------------------20br---17----|----------------|
-------------------------|---------------------------------------|----------------|
                          End 1                                    End 2





----|----------------|--|----------------|------------|-------------------
----|----------------|--|----------------|-4/5-5-5-5--|-------------------
----|----------------|--|----------------|------------|-------------------
----|----------------|--|----------------|------------|-------------------
----|-5---13--6--5---|--|-13/15-15-15-15-|------------|-------------------
----|----------------|--|----------------|------------|-------------------
   
                          End 1            End 2                              


----|------------------------------|--------------------------------------------
----|-9---9h10p9-------------9-----|--------------------------------------------
----|------------8-----------8-----|--------------------------------------------
----|---------------7h8p7----7-----|--------------------------------------------
----|-5----------5-----------------|--------------------------------------------
----|------------------------------|--------------------------------------------
    
     End 3                                                             







----|---------|--|----------------|-------------------------------------------
----|-----8---|--|-10--10------15-|-------------------------------------------
----|-8---8---|--|-9---6---12--12-|-------------------------------------------
----|-5---8---|--|-8---5---12--12-|-------------------------------------------
----|---------|--|---------12--12-|-------------------------------------------
----|---------|--|----------------|-------------------------------------------
  
  
  Bridge                                                                            






----|----17-|------------------------------------------------------------------
----|-------|------------------------------------------------------------------
----|-------|------------------------------------------------------------------
----|-17----|------------------------------------------------------------------
----|-------|------------------------------------------------------------------
----|-------|------------------------------------------------------------------
  

  Chorus                                                                            



----|-------------------|-------------------------|--|----17--17--|------------
----|-------------------|-------------------------|--|------------|------------
----|-20----18-20-18-20-|-------20----18-20-18-20-|--|------------|------------
----|----17-------------|-17-17----17-------------|3x|-17---------|------------
----|-------------------|-------------------------|--|------------|------------
----|-------------------|-------------------------|--|------------|------------
       


                                                                       
----|--------|-----------------------------------------------------------------
----|--------|-----------------------------------------------------------------
----|-20-----|-----------------------------------------------------------------
----|-17-----|-----------------------------------------------------------------
----|-17-----|-----------------------------------------------------------------
----|--------|-----------------------------------------------------------------
comments
print report bad tab
2 comments total.
-1 reply
Improvised88 wrote on February 18 2013, 03:54 pm

all wrong.

0 reply
Saverain wrote on March 20 2013, 08:59 pm

I would appreciate you not bashing my tabs that I worked very hard on.

I want to post or [tab]
guest
You may want to rate the tab now too:
select rating
Please do not post tabs as comments. Select "correction" instead!