Oops, an error
Loading. Please wait.

Magic Johnson Tab

ver2
ver2

Whole song

Interactive

More versions @911Tabs.com
554 views 3 this week
no commentswrite comment
1 2 3 4 5
please rate
Autoscroll
+/-
esc
set tempo
stop
Contributor
Difficulty
intermediate
Hey! There's an official Ultimate Guitar app which is ideal
for learning songs when you're away from computer. Get the app
WARNING: You are trying to view
                                    content from Ultimate-Guitar.com
                                    in an unauthorized application,
                                    which is prohibited.

                                    Please use an official Ultimate
                                    Guitar Tabs application for iPhone,
                                    iPad or Android to access legitimate
                                    chords, guitar, bass, and drum tabs
                                    from Ultimate-Guitar.com database.

                                    Type "ultimate guitar tabs" in Apple
                                    App Store's or Android Market's
                                    search to find the application.
Red Hot Chili Peppers
Magic Johnson
Mothers Milk [1989]

l.a lakers fast break makers
kinds of the court shake and bake all takers
back to back is a bad ass fact a claim that remains..intact
m-a-g-i-c see you on the court
buck has come to play his way and his way is to thwart
m-a-g-i-c magic of the buck
other teams pray for dreams
but he don't give a f**k

[enter guitar]

e--x-x-x-x-x-x-x-x--x-x-x-x-x-x-x-x--|--x-x-x-x-x-x-x-x--x-x-x-x-x-x-x-x--|
B--x-x-x-x-x-x-x-x--x-x-x-x-x-x-x-x--|--x-x-x-x-x-x-x-x--x-x-x-x-x-x-x-x--|
G--x-x-x-x-x-x-x-x--x-x-x-x-x-x-x-x--|--x-x-x-x-x-x-x-x--x-x-x-x-x-x-x-x--|
D--x-x-x-x-x-x-x-x--x-x-x-x-x-x-x-x--|--x-x-x-x-x-x-x-x--x-x-x-x-x-x-x-x--|
A--x-x-x-x-x-x-x-x--x-x-x-x-x-x-x-x--|--x-x-x-x-x-x-x-x--x-x-x-x-x-x-x-x--|
E--x-x-x-x-x-x-x-x--x-x-x-x-x-x-x-x--|--x-x-x-x-x-x-x-x--x-x-x-x-x-x-x-x--|

e--x-x-x-x-x-x-x-x--x-x-x-x-x-x-x-x--|--x-x-x-x-x-x-x-x--x-x-x-x-x-x-x-x--|
B--x-x-x-x-x-x-x-x--x-x-x-x-x-x-x-x--|--x-x-x-x-x-x-x-x--x-x-x-x-x-x-x-x--|
G--x-x-x-x-x-x-x-x--x-x-x-x-x-x-x-x--|--x-x-x-x-x-x-x-x--x-x-x-x-x-x-x-x--|
D--x-x-x-x-x-x-x-x--x-x-x-x-x-x-x-x--|--x-x-x-x-x-x-x-x--x-x-x-x-x-x-x-x--|
A--x-x-x-x-x-x-x-x--x-x-x-x-x-x-x-x--|--x-x-x-x-x-x-x-x--x-x-x-x-x-x-x-x--|
E--x-x-x-x-x-x-x-x--x-x-x-x-x-x-x-x--|--x-x-x-x-x-x-x-x--x-x-x-x-x-x-x-x--|

penetrating the lane like a bullet     comes the magic blood a telepathic
train                                  brain
e--x-x-x-x-x-x-x-x--x-x-x-x-x-x-x-x--|--x-x-x-x-x-x-x-x--x-x-x-x-x-x-x-x--|
B--x-x-x-x-x-x-x-x--x-x-x-x-x-x-x-x--|--x-x-x-x-x-x-x-x--x-x-x-x-x-x-x-x--|
G--x-x-x-x-x-x-x-x--x-x-x-x-x-x-x-x--|--x-x-x-x-x-x-x-x--x-x-x-x-x-x-x-x--|
D--x-x-x-x-x-x-x-x--x-x-x-x-x-x-x-x--|--x-x-x-x-x-x-x-x--x-x-x-x-x-x-x-x--|
A--x-x-x-x-x-x-x-x--x-x-x-x-x-x-x-x--|--x-x-x-x-x-x-x-x--x-x-x-x-x-x-x-x--|
E--x-x-x-x-x-x-x-x--x-x-x-x-x-x-x-x--|--x-x-x-x-x-x-x-x--x-x-x-x-x-x-x-x--|

knucklehead suckers better duck when     like a truck yeaa....
the buck comes through
e--x-x-x-x-x-x-x-x--x-x-x-x-x-x-x-x--|--x-x-x-x-x-x-x-x--x----------------|
B--x-x-x-x-x-x-x-x--x-x-x-x-x-x-x-x--|--x-x-x-x-x-x-x-x--x----------------|
G--x-x-x-x-x-x-x-x--x-x-x-x-x-x-x-x--|--x-x-x-x-x-x-x-x--x----------------|
D--x-x-x-x-x-x-x-x--x-x-x-x-x-x-x-x--|--x-x-x-x-x-x-x-x--x----------------|
A--x-x-x-x-x-x-x-x--x-x-x-x-x-x-x-x--|--x-x-x-x-x-x-x-x--x----------------|
E--x-x-x-x-x-x-x-x--x-x-x-x-x-x-x-x--|--x-x-x-x-x-x-x-x--x----------------|


scott stops pops and drops it in
on his way back gets a little skin 
from the hand of a man named a. c. green
slam so hard break your t.v. screen
worthy's hot with his tomahawk
take it to the hole make your mamma talk
i hate to burst your bubble but triple double trouble
is coming to your town and he's going to make rubble


e--x-x-x---x-x-x---x-x-x---x-x-x---|--x-x-x---x-x-x---x-x-x--x--x---x----|
B--x-x-12--x-x-12--x-x-12--x-x-12--|--x-x-12--x-x-12--x-x-12-15-15--15---|
G--x-x-12--x-x-12--x-x-12--x-x-12--|--x-x-12--x-x-12--x-x-12-12-12--12---|
D----------------------------------|-------------------------------------|
A----------------------------------|-------------------------------------|
E----------------------------------|-------------------------------------|

e--x-x-x---x-x-x---x-x-x---x-x-x---|--x-x-x---x-x-x---x-x-x--x--x---x----|
B--x-x-12--x-x-12--x-x-12--x-x-12--|--x-x-12--x-x-12--x-x-12-17-17--17---|
G--x-x-12--x-x-12--x-x-12--x-x-12--|--x-x-12--x-x-12--x-x-12-12-12--12---|
D----------------------------------|-------------------------------------|
A----------------------------------|-------------------------------------|
E----------------------------------|-------------------------------------|

e--x-x-x---x-x-x---x-x-x---x-x-x---|--x-x-x---x-x-x---x-x-x--x--x---x----|
B--x-x-12--x-x-12--x-x-12--x-x-12--|--x-x-12--x-x-12--x-x-12-15-15--15---|
G--x-x-12--x-x-12--x-x-12--x-x-12--|--x-x-12--x-x-12--x-x-12-12-12--12---|
D----------------------------------|-------------------------------------|
A----------------------------------|-------------------------------------|
E----------------------------------|-------------------------------------|

e--x-7-8---x-x-11-12-13---|
B--x-7-8---x-x-11-12-13---|
G--x-7-8---x-x-11-12-13---|
D-------------------------|
A-------------------------|
E-------------------------|



e--x-x-x-x-x-x-x-x--x-x-x-x-x-x-x-x--|--x-x-x-x-x-x-x-x--x-x-x-x-x-x-x-x--|
B--x-x-x-x-x-x-x-x--x-x-x-x-x-x-x-x--|--x-x-x-x-x-x-x-x--x-x-x-x-x-x-x-x--|
G--x-x-x-x-x-x-x-x--x-x-x-x-x-x-x-x--|--x-x-x-x-x-x-x-x--x-x-x-x-x-x-x-x--|
D--x-x-x-x-x-x-x-x--x-x-x-x-x-x-x-x--|--x-x-x-x-x-x-x-x--x-x-x-x-x-x-x-x--|
A--x-x-x-x-x-x-x-x--x-x-x-x-x-x-x-x--|--x-x-x-x-x-x-x-x--x-x-x-x-x-x-x-x--|
E--x-x-x-x-x-x-x-x--x-x-x-x-x-x-x-x--|--x-x-x-x-x-x-x-x--x-x-x-x-x-x-x-x--|

e--x-x-x-x-x-x-x-x--x-x-x-x-x-x-x-x--|--x-x-x-x-x-x-x-x--x-x-x-x-x-x-x-x--|
B--x-x-x-x-x-x-x-x--x-x-x-x-x-x-x-x--|--x-x-x-x-x-x-x-x--x-x-x-x-x-x-x-x--|
G--x-x-x-x-x-x-x-x--x-x-x-x-x-x-x-x--|--x-x-x-x-x-x-x-x--x-x-x-x-x-x-x-x--|
D--x-x-x-x-x-x-x-x--x-x-x-x-x-x-x-x--|--x-x-x-x-x-x-x-x--x-x-x-x-x-x-x-x--|
A--x-x-x-x-x-x-x-x--x-x-x-x-x-x-x-x--|--x-x-x-x-x-x-x-x--x-x-x-x-x-x-x-x--|
E--x-x-x-x-x-x-x-x--x-x-x-x-x-x-x-x--|--x-x-x-x-x-x-x-x--x-x-x-x-x-x-x-x--|

l.a lakers, fast break makers          kings of the court shake and bake
                                       all takers
e--x-x-x-x-x-x-x-x--x-x-x-x-x-x-x-x--|--x-x-x-x-x-x-x-x--x-x-x-x-x-x-x-x--|
B--x-x-x-x-x-x-x-x--x-x-x-x-x-x-x-x--|--x-x-x-x-x-x-x-x--x-x-x-x-x-x-x-x--|
G--x-x-x-x-x-x-x-x--x-x-x-x-x-x-x-x--|--x-x-x-x-x-x-x-x--x-x-x-x-x-x-x-x--|
D--x-x-x-x-x-x-x-x--x-x-x-x-x-x-x-x--|--x-x-x-x-x-x-x-x--x-x-x-x-x-x-x-x--|
A--x-x-x-x-x-x-x-x--x-x-x-x-x-x-x-x--|--x-x-x-x-x-x-x-x--x-x-x-x-x-x-x-x--|
E--x-x-x-x-x-x-x-x--x-x-x-x-x-x-x-x--|--x-x-x-x-x-x-x-x--x-x-x-x-x-x-x-x--|

back to back is a bad ass fact        a claim that remains..intact
e--x-x-x-x-x-x-x-x--x-x-x-x-x-x-x-x--|--x-x-x-x-x-x-x-x--x-x-x-x-x-x-x-x--|
B--x-x-x-x-x-x-x-x--x-x-x-x-x-x-x-x--|--x-x-x-x-x-x-x-x--x-x-x-x-x-x-x-x--|
G--x-x-x-x-x-x-x-x--x-x-x-x-x-x-x-x--|--x-x-x-x-x-x-x-x--x-x-x-x-x-x-x-x--|
D--x-x-x-x-x-x-x-x--x-x-x-x-x-x-x-x--|--x-x-x-x-x-x-x-x--x-x-x-x-x-x-x-x--|
A--x-x-x-x-x-x-x-x--x-x-x-x-x-x-x-x--|--x-x-x-x-x-x-x-x--x-x-x-x-x-x-x-x--|
E--x-x-x-x-x-x-x-x--x-x-x-x-x-x-x-x--|--x-x-x-x-x-x-x-x--x-x-x-x-x-x-x-x--|

m-a-g-i-c see you in purple and gold
You can swim, but you won't get far so you might as well go home
m-a-g-i-c in buck we trust
restoring order to the court and justice is a must

e--x-x-x-x-x-x-x-x--x-x-x-x-x-x-x-x--|--x-x-x-x-x-x-x-x--x-x-x-x-x-x-x-x--|
B--x-x-x-x-x-x-x-x--x-x-x-x-x-x-x-x--|--x-x-x-x-x-x-x-x--x-x-x-x-x-x-x-x--|
G--x-x-x-x-x-x-x-x--x-x-x-x-x-x-x-x--|--x-x-x-x-x-x-x-x--x-x-x-x-x-x-x-x--|
D--x-x-x-x-x-x-x-x--x-x-x-x-x-x-x-x--|--x-x-x-x-x-x-x-x--x-x-x-x-x-x-x-x--|
A--x-x-x-x-x-x-x-x--x-x-x-x-x-x-x-x--|--x-x-x-x-x-x-x-x--x-x-x-x-x-x-x-x--|
E--x-x-x-x-x-x-x-x--x-x-x-x-x-x-x-x--|--x-x-x-x-x-x-x-x--x-x-x-x-x-x-x-x--|

e--x-x-x-x-x-x-x-x--x-x-x-x-x-x-x-x--|--x-x-x-x-x-x-x-x--x-x-x-x-x-x-x-x--|
B--x-x-x-x-x-x-x-x--x-x-x-x-x-x-x-x--|--x-x-x-x-x-x-x-x--x-x-x-x-x-x-x-x--|
G--x-x-x-x-x-x-x-x--x-x-x-x-x-x-x-x--|--x-x-x-x-x-x-x-x--x-x-x-x-x-x-x-x--|
D--x-x-x-x-x-x-x-x--x-x-x-x-x-x-x-x--|--x-x-x-x-x-x-x-x--x-x-x-x-x-x-x-x--|
A--x-x-x-x-x-x-x-x--x-x-x-x-x-x-x-x--|--x-x-x-x-x-x-x-x--x-x-x-x-x-x-x-x--|
E--x-x-x-x-x-x-x-x--x-x-x-x-x-x-x-x--|--x-x-x-x-x-x-x-x--x-x-x-x-x-x-x-x--|


lakers are the team that i watch on    cause they got more moves than a
the telly                              bowlful of jelly
e--x-x-x-x-x-x-x-x--x-x-x-x-x-x-x-x--|--x-x-x-x-x-x-x-x--x-x-x-x-x-x-x-x--|
B--x-x-x-x-x-x-x-x--x-x-x-x-x-x-x-x--|--x-x-x-x-x-x-x-x--x-x-x-x-x-x-x-x--|
G--x-x-x-x-x-x-x-x--x-x-x-x-x-x-x-x--|--x-x-x-x-x-x-x-x--x-x-x-x-x-x-x-x--|
D--x-x-x-x-x-x-x-x--x-x-x-x-x-x-x-x--|--x-x-x-x-x-x-x-x--x-x-x-x-x-x-x-x--|
A--x-x-x-x-x-x-x-x--x-x-x-x-x-x-x-x--|--x-x-x-x-x-x-x-x--x-x-x-x-x-x-x-x--|

the buck stops here, pops, then       a roar through the forum that 
cheers                                deafens my ears
e--x-x-x-x-x-x-x-x--x-x-x-x-x-x-x-x--|--x-x-x-x-x-x-x-x--x-x-x-x-x-x-x-x--|
B--x-x-x-x-x-x-x-x--x-x-x-x-x-x-x-x--|--x-x-x-x-x-x-x-x--x-x-x-x-x-x-x-x--|
G--x-x-x-x-x-x-x-x--x-x-x-x-x-x-x-x--|--x-x-x-x-x-x-x-x--x-x-x-x-x-x-x-x--|
D--x-x-x-x-x-x-x-x--x-x-x-x-x-x-x-x--|--x-x-x-x-x-x-x-x--x-x-x-x-x-x-x-x--|
A--x-x-x-x-x-x-x-x--x-x-x-x-x-x-x-x--|--x-x-x-x-x-x-x-x--x-x-x-x-x-x-x-x--|
E--x-x-x-x-x-x-x-x--x-x-x-x-x-x-x-x--|--x-x-x-x-x-x-x-x--x-x-x-x-x-x-x-x--|
E--x-x-x-x-x-x-x-x--x-x-x-x-x-x-x-x--|--x-x-x-x-x-x-x-x--x-x-x-x-x-x-x-x--|


the one and only known
of his kind sits in a throne
not for the records that he holds
but for being bald and bold
kareem abdul jabbar
all time great super super star
i hate to burst your bubble but triple double trouble 
is coming to your town and he's going to make rubble


e--x-x-x---x-x-x---x-x-x---x-x-x---|--x-x-x---x-x-x---x-x-x--x--x---x----|
B--x-x-12--x-x-12--x-x-12--x-x-12--|--x-x-12--x-x-12--x-x-12-15-15--15---|
G--x-x-12--x-x-12--x-x-12--x-x-12--|--x-x-12--x-x-12--x-x-12-12-12--12---|
D----------------------------------|-------------------------------------|
A----------------------------------|-------------------------------------|
E----------------------------------|-------------------------------------|

e--x-x-x---x-x-x---x-x-x---x-x-x---|--x-x-x---x-x-x---x-x-x--x--x---x----|
B--x-x-12--x-x-12--x-x-12--x-x-12--|--x-x-12--x-x-12--x-x-12-17-17--17---|
G--x-x-12--x-x-12--x-x-12--x-x-12--|--x-x-12--x-x-12--x-x-12-12-12--12---|
D----------------------------------|-------------------------------------|
A----------------------------------|-------------------------------------|
E----------------------------------|-------------------------------------|

e--x-x-x---x-x-x---x-x-x---x-x-x---|--x-x-x---x-x-x---x-x-x--x--x---x----|
B--x-x-12--x-x-12--x-x-12--x-x-12--|--x-x-12--x-x-12--x-x-12-15-15--15---|
G--x-x-12--x-x-12--x-x-12--x-x-12--|--x-x-12--x-x-12--x-x-12-12-12--12---|
D----------------------------------|-------------------------------------|
A----------------------------------|-------------------------------------|
E----------------------------------|-------------------------------------|

e--x-7-8---x-x-11-12-13---|
B--x-7-8---x-x-11-12-13---|
G--x-7-8---x-x-11-12-13---|
D-------------------------|
A-------------------------|
E-------------------------|

e----------------------------------------|---------------------------------|
B--12h15-----------------------15/17\15--|--12h15--------------------------|
G---------12h14p12-----------------------|---------12h14h12----------------|
D-------------------14--12h14------------|------------------14-------------|
A----------------------------------------|----------------------x12-12-12--|
E----------------------------------------|---------------------------------|

e----------------------------------------|---------------------------------|
B--12h15-----------------------15/17\15--|--12h15---------------x17-17-17--|
G---------12h14p12-----------------------|---------12h14h12----------------|
D-------------------14--12h14------------|------------------14-------------|
A----------------------------------------|---------------------------------|
E----------------------------------------|---------------------------------|

e----------------------------------------|---------------------------------|
B--12h15-----------------------15/17\15--|--12h15--------------------------|
G---------12h14p12-----------------------|---------12h14h12----------------|
D-------------------14--12h14------------|------------------14-------------|
A----------------------------------------|----------------------x12-12-12--|
E----------------------------------------|---------------------------------|

e----------------------------------------|--x-7-8---x-x-11-12-13---|
B--12h15-----------------------15/17\15--|--x-7-8---x-x-11-12-13---|
G---------12h14p12-----------------------|--x-7-8---x-x-11-12-13---|
D-------------------14--12h14------------|-------------------------|
A----------------------------------------|-------------------------|
E----------------------------------------|-------------------------|


does anybody want some?
magic johnson!
does anybody want some?
magic johnson!
does anybody want some?
magic johnson!
does anybody want some?
magic johnson!
l.a lakers fast break makers
kings of the court shake and bake all takers
back to back is a bad ass fact a claim that remains in tact

END
comments
We did not receive enough feedback on this tab! Please rate:
print report bad tab
1 2 3 4 5
I want to post or [tab]
guest
You may want to rate the tab now too:
select rating
Please do not post tabs as comments. Select "correction" instead!