Oops, an error
Loading. Please wait.

Monarchy Of Roses Tab

ver3
ver3

Whole song

More versions @911Tabs.com
618 views 12 this week
no commentswrite comment
1 2 3 4 5
excellent!
x 1
Autoscroll
+/-
esc
set tempo
stop
Contributor
WARNING: You are trying to view
                                    content from Ultimate-Guitar.com
                                    in an unauthorized application,
                                    which is prohibited.

                                    Please use an official Ultimate
                                    Guitar Tabs application for iPhone,
                                    iPad or Android to access legitimate
                                    chords, guitar, bass, and drum tabs
                                    from Ultimate-Guitar.com database.

                                    Type "ultimate guitar tabs" in Apple
                                    App Store's or Android Market's
                                    search to find the application.
-------------------------------------------------------------------------------
                  Monarchy of Roses - Red Hot Chili Peppers
-------------------------------------------------------------------------------

Album: I'm With You
Tabbed by: Dimitris_RHCP
E-mail: jimakos619@gmail.com
Youtube Chanel: Mitsakoc_7

Tuning: Standard

Intro (Distortion):

e|--0----|---------------------|--0---0-----|--0---0-------------------7-------|
B|--0----|--17-15--------------|--0---0-----|--0---0-------------------8-------|
G|--0----|---------16-15--16---|--1---1-----|--0---0-------------------9-------|
D|--0----|---------------------|--2---2-----|--0---0---------------------------|
A|--0----|---------------------|--2---2-----|--0---0---------------------------|
E|--0----|---------------------|--0---0-----|--0---0---------------------------|

Verse 1 (Distortion):

e|----------------------------------|
B|----------------------------------|
G|----------------------------------|
D|--2-----5-----9-----8-------------| x4
A|--2-----5-----9-----8-------------|
E|--0-----3-----7-----6-------------|

Chorus (Clean):

e|------x-x-----x------x--------------x-x--|------12--x-x--12--x-x--12--x-x--12--x-x-x-x-------------|
B|------x-x--8--x------x--8--8--8--8--x-x--|------12--x-x--12--x-x--12--x-x--12--x-x-x-x-------------|
G|------x-x--9--x------x--9--9--9--9--x-x--|------12--x-x--12--x-x--12--x-x--12--x-x-x-x-------------|
D|--10--x-x-----x--10--x--------------x-x--|--14------x-x------x-x------x-x------x-x-x-x-------------|
A|------x-x-----x------x--------------x-x--|----------x-x------x-x------x-x------x-x-x-x-------------|
E|------x-x-----x------x--------------x-x--|----------x-x------x-x------x-x------x-x-x-x-------------|

e|-x-----x-x-----x-----x--------x-x-x-x-x--|------12--x-x--12--x-x--12--x-x--12--x--12---------------|
B|-x-----x-x-----x-----x--------x-x-x-x-x--|------12--x-x--12--x-x--12--x-x--12--x--12---------------|
G|-x--9--x-x--9--x--9--x--7--9--x-x-x-x-x--|------12--x-x--12--x-x--12--x-x--12--x--12---------------|
D|-x-----x-x-----x-----x--------x-x-x-x-x--|--14------x-x------x-x------x-x------x-------------------|
A|-x-----x-x-----x-----x--------x-x-x-x-x--|----------x-x------x-x------x-x------x-------------------|
E|-x-----x-x-----x-----x--------x-x-x-x-x--|----------x-x------x-x------x-x------x-------------------|

e|-x-----x-x-----x-----x--------x-x-x-x-x--|------12--x-x--12--x-x--12--x-x--12--x-x-x-x-------------|
B|-x-----x-x-----x-----x--------x-x-x-x-x--|------12--x-x--12--x-x--12--x-x--12--x-x-x-x-------------|
G|-x--9--x-x--9--x--9--x--7--9--x-x-x-x-x--|------12--x-x--12--x-x--12--x-x--12--x-x-x-x-------------|
D|-x-----x-x-----x-----x--------x-x-x-x-x--|--14------x-x------x-x------x-x------x-x-x-x-------------|
A|-x-----x-x-----x-----x--------x-x-x-x-x--|----------x-x------x-x------x-x------x-x-x-x-------------|
E|-x-----x-x-----x-----x--------x-x-x-x-x--|----------x-x------x-x------x-x------x-x-x-x-------------|

e|---------x-x------x-x---------x-x---------x-x--|--7--7---x-x--7---x-x--7--7---x-x--7--7---x-x------|
B|--10-10--x-x--10--x-x--10-10--x-x--10-10--x-x--|--10-10--x-x--10--x-x--10-10--x-x--10-10--x-x------|
G|--11-11--x-x--11--x-x--11-11--x-x--11-11--x-x--|--8--8---x-x--8---x-x--8--8---x-x--8--8---x-x------|
D|---------x-x------x-x---------x-x---------x-x--|---------x-x------x-x---------x-x---------x-x------|
A|---------x-x------x-x---------x-x---------x-x--|---------x-x------x-x---------x-x---------x-x------|
E|---------x-x------x-x---------x-x---------x-x--|---------x-x------x-x---------x-x---------x-x------|

e|-----------------------------------------|-------------------------------|------------------------------|
B|-----------------------------------------|-------------------------------|------------------------------|
G|--9----------9--9--9--9--9-----9---------|--9---9--9---9--9--9--9--9--9--|--9---9--9---9--9--9--9--9--9-|
D|-----------------------------------------|-------------------------------|------------------------------|
A|-----------------------------------------|-------------------------------|------------------------------|
E|-----------------------------------------|-------------------------------|------------------------------|

e|------12--x-x--12--x-x--12--x-x--12-12-12-12--x-x--|---------x-x-------x-x---------x-x---------x-x--|
B|------12--x-x--12--x-x--12--x-x--12-12-12-12--x-x--|--10-10--x-x--10---x-x--10-10--x-x--10-10--x-x--|
G|------12--x-x--12--x-x--12--x-x--12-12-12-12--x-x--|--11-11--x-x--11---x-x--11-11--x-x--11-11--x-x--|
D|--14------x-x------x-x------x-x---------------x-x--|---------x-x-------x-x---------x-x---------x-x--|
A|----------x-x------x-x------x-x---------------x-x--|---------x-x-------x-x---------x-x---------x-x--|
E|----------x-x------x-x------x-x---------------x-x--|---------x-x-------x-x---------x-x---------x-x--|

e|--7--7---x-x--7----x-x--7--7---x-x--7--7---x-x--|---------x-x------x-x---------x-x---------x-x------|
B|--10-10--x-x--10---x-x--10-10--x-x--10-10--x-x--|--10-10--x-x--10--x-x--10-10--x-x--10-10--x-x------|
G|--8--8---x-x--8----x-x--8--8---x-x--8--8---x-x--|--11-11--x-x--11--x-x--11-11--x-x--11-11--x-x------|
D|---------x-x-------x-x---------x-x---------x-x--|---------x-x------x-x---------x-x---------x-x------|
A|---------x-x-------x-x---------x-x---------x-x--|---------x-x------x-x---------x-x---------x-x------|
E|---------x-x-------x-x---------x-x---------x-x--|---------x-x------x-x---------x-x---------x-x------|

e|--7--7---x-x--7----x-x--7--7---x-x--7--7---x-x--|----------------------------------------19---------|
B|--10-10--x-x--10---x-x--10-10--x-x--10-10--x-x--|------------------------------------20------19--20-|
G|--8--8---x-x--8----x-x--8--8---x-x--8--8---x-x--|--16--(16)--(16)--(16)--(16)--(16)-----------------|
D|---------x-x-------x-x---------x-x---------x-x--|---------------------------------------------------|
A|---------x-x-------x-x---------x-x---------x-x--|---------------------------------------------------|
E|---------x-x-------x-x---------x-x---------x-x--|---------------------------------------------------|

Verse 2 (Distortion):

e|----------------------------------|
B|----------------------------------|
G|----------------------------------|
D|--2-----5-----9-----8-------------| x4
A|--2-----5-----9-----8-------------|
E|--0-----3-----7-----6-------------|

Chorus (Clean):

e|------x-x-----x------x--------------x-x--|------12--x-x--12--x-x--12--x-x--12--x-x-x-x-------------|
B|------x-x--8--x------x--8--8--8--8--x-x--|------12--x-x--12--x-x--12--x-x--12--x-x-x-x-------------|
G|------x-x--9--x------x--9--9--9--9--x-x--|------12--x-x--12--x-x--12--x-x--12--x-x-x-x-------------|
D|--10--x-x-----x--10--x--------------x-x--|--14------x-x------x-x------x-x------x-x-x-x-------------|
A|------x-x-----x------x--------------x-x--|----------x-x------x-x------x-x------x-x-x-x-------------|
E|------x-x-----x------x--------------x-x--|----------x-x------x-x------x-x------x-x-x-x-------------|

e|-x-----x-x-----x-----x--------x-x-x-x-x--|------12--x-x--12--x-x--12--x-x--12--x--12---------------|
B|-x-----x-x-----x-----x--------x-x-x-x-x--|------12--x-x--12--x-x--12--x-x--12--x--12---------------|
G|-x--9--x-x--9--x--9--x--7--9--x-x-x-x-x--|------12--x-x--12--x-x--12--x-x--12--x--12---------------|
D|-x-----x-x-----x-----x--------x-x-x-x-x--|--14------x-x------x-x------x-x------x-------------------|
A|-x-----x-x-----x-----x--------x-x-x-x-x--|----------x-x------x-x------x-x------x-------------------|
E|-x-----x-x-----x-----x--------x-x-x-x-x--|----------x-x------x-x------x-x------x-------------------|

e|-x-----x-x-----x-----x--------x-x-x-x-x--|------12--x-x--12--x-x--12--x-x--12--x-x-x-x-------------|
B|-x-----x-x-----x-----x--------x-x-x-x-x--|------12--x-x--12--x-x--12--x-x--12--x-x-x-x-------------|
G|-x--9--x-x--9--x--9--x--7--9--x-x-x-x-x--|------12--x-x--12--x-x--12--x-x--12--x-x-x-x-------------|
D|-x-----x-x-----x-----x--------x-x-x-x-x--|--14------x-x------x-x------x-x------x-x-x-x-------------|
A|-x-----x-x-----x-----x--------x-x-x-x-x--|----------x-x------x-x------x-x------x-x-x-x-------------|
E|-x-----x-x-----x-----x--------x-x-x-x-x--|----------x-x------x-x------x-x------x-x-x-x-------------|

e|---------x-x------x-x---------x-x---------x-x--|--7--7---x-x--7---x-x--7--7---x-x--7--7---x-x------|
B|--10-10--x-x--10--x-x--10-10--x-x--10-10--x-x--|--10-10--x-x--10--x-x--10-10--x-x--10-10--x-x------|
G|--11-11--x-x--11--x-x--11-11--x-x--11-11--x-x--|--8--8---x-x--8---x-x--8--8---x-x--8--8---x-x------|
D|---------x-x------x-x---------x-x---------x-x--|---------x-x------x-x---------x-x---------x-x------|
A|---------x-x------x-x---------x-x---------x-x--|---------x-x------x-x---------x-x---------x-x------|
E|---------x-x------x-x---------x-x---------x-x--|---------x-x------x-x---------x-x---------x-x------|

e|-----------------------------------------|-------------------------------|------------------------------|
B|-----------------------------------------|-------------------------------|------------------------------|
G|--9----------9--9--9--9--9-----9---------|--9---9--9---9--9--9--9--9--9--|--9---9--9---9--9--9--9--9--9-|
D|-----------------------------------------|-------------------------------|------------------------------|
A|-----------------------------------------|-------------------------------|------------------------------|
E|-----------------------------------------|-------------------------------|------------------------------|

e|------12--x-x--12--x-x--12--x-x--12-12-12-12--x-x--|---------x-x-------x-x---------x-x---------x-x--|
B|------12--x-x--12--x-x--12--x-x--12-12-12-12--x-x--|--10-10--x-x--10---x-x--10-10--x-x--10-10--x-x--|
G|------12--x-x--12--x-x--12--x-x--12-12-12-12--x-x--|--11-11--x-x--11---x-x--11-11--x-x--11-11--x-x--|
D|--14------x-x------x-x------x-x---------------x-x--|---------x-x-------x-x---------x-x---------x-x--|
A|----------x-x------x-x------x-x---------------x-x--|---------x-x-------x-x---------x-x---------x-x--|
E|----------x-x------x-x------x-x---------------x-x--|---------x-x-------x-x---------x-x---------x-x--|

e|--7--7---x-x--7----x-x--7--7---x-x--7--7---x-x--|---------x-x------x-x---------x-x---------x-x------|
B|--10-10--x-x--10---x-x--10-10--x-x--10-10--x-x--|--10-10--x-x--10--x-x--10-10--x-x--10-10--x-x------|
G|--8--8---x-x--8----x-x--8--8---x-x--8--8---x-x--|--11-11--x-x--11--x-x--11-11--x-x--11-11--x-x------|
D|---------x-x-------x-x---------x-x---------x-x--|---------x-x------x-x---------x-x---------x-x------|
A|---------x-x-------x-x---------x-x---------x-x--|---------x-x------x-x---------x-x---------x-x------|
E|---------x-x-------x-x---------x-x---------x-x--|---------x-x------x-x---------x-x---------x-x------|

e|--7--7---x-x--7----x-x--7--7---x-x--7--7---x-x--|
B|--10-10--x-x--10---x-x--10-10--x-x--10-10--x-x--|
G|--8--8---x-x--8----x-x--8--8---x-x--8--8---x-x--|
D|---------x-x-------x-x---------x-x---------x-x--|
A|---------x-x-------x-x---------x-x---------x-x--|
E|---------x-x-------x-x---------x-x---------x-x--|

Intro (Distortion):

e|----------------------------------------|
B|----------------------------------------|
G|----------------------------------------|
D|--2--(2)--(2)--(2)--(2)--(2)--(2)--(2)--|
A|--2--(2)--(2)--(2)--(2)--(2)--(2)--(2)--|
E|--0--(0)--(0)--(0)--(0)--(0)--(0)--(0)--|

Bridge (Distortion):

e|----------------------------------|
B|------17------17------17------17--|
G|--13------13------14------14------|
D|----------------------------------| x8
A|----------------------------------|
E|----------------------------------|

Chorus (Clean):

e|------x-x-----x------x--------------x-x--|------12--x-x--12--x-x--12--x-x--12--x-x-x-x-------------|
B|------x-x--8--x------x--8--8--8--8--x-x--|------12--x-x--12--x-x--12--x-x--12--x-x-x-x-------------|
G|------x-x--9--x------x--9--9--9--9--x-x--|------12--x-x--12--x-x--12--x-x--12--x-x-x-x-------------|
D|--10--x-x-----x--10--x--------------x-x--|--14------x-x------x-x------x-x------x-x-x-x-------------|
A|------x-x-----x------x--------------x-x--|----------x-x------x-x------x-x------x-x-x-x-------------|
E|------x-x-----x------x--------------x-x--|----------x-x------x-x------x-x------x-x-x-x-------------|

e|-x-----x-x-----x-----x--------x-x-x-x-x--|------12--x-x--12--x-x--12--x-x--12--x--12---------------|
B|-x-----x-x-----x-----x--------x-x-x-x-x--|------12--x-x--12--x-x--12--x-x--12--x--12---------------|
G|-x--9--x-x--9--x--9--x--7--9--x-x-x-x-x--|------12--x-x--12--x-x--12--x-x--12--x--12---------------|
D|-x-----x-x-----x-----x--------x-x-x-x-x--|--14------x-x------x-x------x-x------x-------------------|
A|-x-----x-x-----x-----x--------x-x-x-x-x--|----------x-x------x-x------x-x------x-------------------|
E|-x-----x-x-----x-----x--------x-x-x-x-x--|----------x-x------x-x------x-x------x-------------------|

e|-x-----x-x-----x-----x--------x-x-x-x-x--|------12--x-x--12--x-x--12--x-x--12--x-x-x-x-------------|
B|-x-----x-x-----x-----x--------x-x-x-x-x--|------12--x-x--12--x-x--12--x-x--12--x-x-x-x-------------|
G|-x--9--x-x--9--x--9--x--7--9--x-x-x-x-x--|------12--x-x--12--x-x--12--x-x--12--x-x-x-x-------------|
D|-x-----x-x-----x-----x--------x-x-x-x-x--|--14------x-x------x-x------x-x------x-x-x-x-------------|
A|-x-----x-x-----x-----x--------x-x-x-x-x--|----------x-x------x-x------x-x------x-x-x-x-------------|
E|-x-----x-x-----x-----x--------x-x-x-x-x--|----------x-x------x-x------x-x------x-x-x-x-------------|

e|---------x-x------x-x---------x-x---------x-x--|--7--7---x-x--7---x-x--7--7---x-x--7--7---x-x------|
B|--10-10--x-x--10--x-x--10-10--x-x--10-10--x-x--|--10-10--x-x--10--x-x--10-10--x-x--10-10--x-x------|
G|--11-11--x-x--11--x-x--11-11--x-x--11-11--x-x--|--8--8---x-x--8---x-x--8--8---x-x--8--8---x-x------|
D|---------x-x------x-x---------x-x---------x-x--|---------x-x------x-x---------x-x---------x-x------|
A|---------x-x------x-x---------x-x---------x-x--|---------x-x------x-x---------x-x---------x-x------|
E|---------x-x------x-x---------x-x---------x-x--|---------x-x------x-x---------x-x---------x-x------|

e|-----------------------------------------|-------------------------------|------------------------------|
B|-----------------------------------------|-------------------------------|------------------------------|
G|--9----------9--9--9--9--9-----9---------|--9---9--9---9--9--9--9--9--9--|--9---9--9---9--9--9--9--9--9-|
D|-----------------------------------------|-------------------------------|------------------------------|
A|-----------------------------------------|-------------------------------|------------------------------|
E|-----------------------------------------|-------------------------------|------------------------------|

e|------12--x-x--12--x-x--12--x-x--12-12-12-12--x-x--|---------x-x-------x-x---------x-x---------x-x--|
B|------12--x-x--12--x-x--12--x-x--12-12-12-12--x-x--|--10-10--x-x--10---x-x--10-10--x-x--10-10--x-x--|
G|------12--x-x--12--x-x--12--x-x--12-12-12-12--x-x--|--11-11--x-x--11---x-x--11-11--x-x--11-11--x-x--|
D|--14------x-x------x-x------x-x---------------x-x--|---------x-x-------x-x---------x-x---------x-x--|
A|----------x-x------x-x------x-x---------------x-x--|---------x-x-------x-x---------x-x---------x-x--|
E|----------x-x------x-x------x-x---------------x-x--|---------x-x-------x-x---------x-x---------x-x--|

e|--7--7---x-x--7----x-x--7--7---x-x--7--7---x-x--|---------x-x------x-x---------x-x---------x-x------|
B|--10-10--x-x--10---x-x--10-10--x-x--10-10--x-x--|--10-10--x-x--10--x-x--10-10--x-x--10-10--x-x------|
G|--8--8---x-x--8----x-x--8--8---x-x--8--8---x-x--|--11-11--x-x--11--x-x--11-11--x-x--11-11--x-x------|
D|---------x-x-------x-x---------x-x---------x-x--|---------x-x------x-x---------x-x---------x-x------|
A|---------x-x-------x-x---------x-x---------x-x--|---------x-x------x-x---------x-x---------x-x------|
E|---------x-x-------x-x---------x-x---------x-x--|---------x-x------x-x---------x-x---------x-x------|

e|--7--7---x-x--7----x-x--7--7---x-x--7--7---x-x--|
B|--10-10--x-x--10---x-x--10-10--x-x--10-10--x-x--|
G|--8--8---x-x--8----x-x--8--8---x-x--8--8---x-x--|
D|---------x-x-------x-x---------x-x---------x-x--|
A|---------x-x-------x-x---------x-x---------x-x--|
E|---------x-x-------x-x---------x-x---------x-x--|

Outro (Distortion):

e|----------------------|---------------------|-------------------------------|
B|--3--3-3-3-3-3-3---3--|--5--5-5-5-5-5-5--5--|--8---8--8--8--8--8--8---8-----|
G|--4--4-4-4-4-4-4---4--|--5--5-5-5-5-5-5--5--|--9---9--9--9--9--9--9---9-----|
D|--5--5-5-5-5-5-5---5--|--7--7-7-7-7-7-7--7--|--10--10-10-10-10-10-10--10----| x6
A|--5--5-5-5-5-5-5---5--|--7--7-7-7-7-7-7--7--|--10--10-10-10-10-10-10--10----|
E|--3--3-3-3-3-3-3---3--}--5--5-5-5-5-5-5--5--|--8---8--8--8--8--8--8---8-----|

End With:

e|----------|
B|--3-------|
G|--4-------|
D|--5-------|
A|--5-------|
E|--3-------|

************************************

| /   slide up
| \   slide down
| h   hammer-on
| p   pull-off
| ~   vibrato
| +   harmonic
| x   Mute note
| b   Bend
| pb  Pre-bend
| br  Bend release
| pbr Pre-bend release
| brb Bend release bend

************************************
comments
We did not receive enough feedback on this tab! Please rate:
print report bad tab
1 2 3 4 5
I want to post or [tab]
guest
You may want to rate the tab now too:
select rating
Please do not post tabs as comments. Select "correction" instead!