Oops, an error
Loading. Please wait.

On Mercury Bass Tab

ver3
ver3

Whole song

Interactive

More versions @911Tabs.com
2,039 views 1 this week
1 commentread comment
1 2 3 4 5
excellent!
x 5
Autoscroll
+/-
esc
set tempo
stop
Contributor
Difficulty
intermediate
Hey! There's an official Ultimate Guitar app which is ideal
for learning songs when you're away from computer. Get the app
WARNING: You are trying to view
                                    content from Ultimate-Guitar.com
                                    in an unauthorized application,
                                    which is prohibited.

                                    Please use an official Ultimate
                                    Guitar Tabs application for iPhone,
                                    iPad or Android to access legitimate
                                    chords, guitar, bass, and drum tabs
                                    from Ultimate-Guitar.com database.

                                    Type "ultimate guitar tabs" in Apple
                                    App Store's or Android Market's
                                    search to find the application.
Song: On mercury
Artist: Red Hot Chili Peppers
Album: Stadium Arcadium
Bassist: Flea

Tabbed by Marcos Prieto (marcrow_ps@yahoo.es)


Notation legend:

 \ | /
   3   -> triplet, 3 notes in 2 beats.
   x   -> mute.
   \   -> slide up.    \   It can be after or before the note, like 1h3,
   /   -> slide down.   |  but if there's no enought space it can be 
   h   -> hammer on.    |  over or down, like G|-13-...
   p   -> pull off.    /                      D|--h-...
   ~   -> let ring.
   r   -> rest.
   S   -> slap.
   P   -> pop.
   + + -> the rhythm of the song, generally 4x4. If there are 2 digits notes
          or there's no enough space, I lengthen it, 
          from (+   +   ...) to (+   ·   +   ·  ...) 
   |·------·| -> repeat this a number of times, for example |·3-3-3-3·| x4
                 repeats 3-3-3-3 four times.


Intro & Verse:

   Bm               G                A                Em  F#  G   F#
   +   +   +   +    +   +   +   +    +   +   +   +    +   +   +   +
G||----------------|----------------|----------------|----------------||
D|·----------------|----------------|7-7-7-----------|----------------·|
A|·--------9-9-9---|10109-9-7-7-9---|--------7-7-7---|7-7-9-9-10109---·|
E||7---------------|----------------|----------------|----------^-----|| x6
                                                                |
  3rd time:          5th time:                       play this note
  A                  A                               only the 4th and 
  +   +   +   +      +   +   +   +                   5th time
G|----------------| |----------------|
D|7---------------| |7---7-----------|
A|--------7-7-7---| |--------7---7---|
E|----------------| |----------------|

Pre-Chorus 1:  

  G                                 F#
  +   +   +   +    +   +   +   +    +   +   +   +    +   +   +   +
G|----------------|----------------|----------------|----------------|
D|5---r-5-5---r-5-|r-5-r-7-r---5-7-|4---r-4-4---r-4-|4---------------|
A|----------------|----------------|----------------|--4-4-5-5-7-7---|
E|----------------|----------3-----|----------------|----------------|

  G                                 F#
  +   +   +   +    +   +   +   +    +   +   +   +    +   +   +   +
G|----------------|--/-------------|----------------|----------------|
D|5---r-5-5---r-5-|r79-r-7-r-5-r---|4-r---4-4-4-r-4-|4-4-4---4---4---|
A|----------------|--------------5-|----------------|----------------|
E|----------------|----------------|----------------|--------------2-|

Chorus 1:

  Bm               D                A                Em
  +   +   +   +    +   +   +   +    +   +   +   +    +   +   +   +
G|----------------|----------7-----|----------------|----------9-----|
D|----------9-----|------7-----7-x-|----------7-----|------9-----9-r-|
A|------9---------|5---------------|------7-----7-r-|7---------------|
E|7-----------x-x-|----------------|5---------------|----------------|

  Bm               D                A                F
  +   +   +   +    +   +   +   +    +   +   +   +    +   +   +   +
G|----------------|----------7-----|----------------|----------------|
D|----------9-----|------7-----7-r-|----------7-----|----------------|
A|------9---------|5---------------|------7-----7---|----------------|
E|7-----------7-5-|----------------|5-------------0-|2-----2---2--/6-|

  Bm               D                A                Em
  +   +   +   +    +   +   +   +    +   +   +   +    +   +   +   +
G|----------------|----------7-7-r-|----------------|----------9-----|
D|----9-----------|------7---------|----------7-----|------9-----9---|
A|------9---------|5---------------|------r-----7---|7---------------|
E|7---------9-9-r-|----------------|5---------------|----------------|

  Bm               D                C#      A#
  +   +   +   +    +   +   +   +    +   +   +   +    +   +   +   +
G|----------------|----------7-----|----------------|----------------|
D|----------9-----|------7-----7-/-|11------8~------|----------------|
A|------9-------r-|5---------------|----------------|----------------|
E|7-----------7---|----------------|----------------|----------------|

Verse 2:

  Bm               G                A                Em  F#  G   F#
  +   +   +   +    +   +   +   +    +   +   +   +    +   +   +   +
G|----------------|----------------|----------------|----------------|
D|----------------|----------------|7---7-----------|----------------|
A|--------9-------|10109-9-7-7-9---|--------7---7---|7---9---10--9---|
E|7---------------|----------------|----------------|----------------|

  Bm               G                A                Em  F#  G   F#
  +   +   +   +    +   +   +   +    +   +   +   +    +   +   +   +
G|----------------|----------------|----------------|----------------|
D|----------------|----------------|7---7-----------|----------------|
A|--------9-------|10--9---7---9---|--------7-7-7---|7-7-9-9-10109---|
E|7---------------|----------------|----------------|----------------|

  Bm               G                A                Em  F#  G   F#
  +   +   +   +    +   +   +   +    +   +   +   +    +   +   +   +
G|----------------|----------------|----------------|----------------|
D|----------------|----------------|7-7-7-----------|----------------|
A|--------9-9-9---|10109-9-7-7-9---|--------7---7---|7-7-9-9-10109---|
E|7---------------|----------------|----------------|----------------|

  Bm               G                A                Em  F#  G   F#
  +   +   +   +    +   +   +   +    +   +   +   +    +   +   +   +
G|----------------|----------------|----------------|----------------|
D|----------------|----------------|7-7-7-----------|----------------|
A|--------9-9-9---|10109-9-7-7-9---|--------7-7-7---|7-7-9-9-10109---|
E|7---b-----------|----------------|----------------|----------------|

Pre-Chorus 2:  

  G                                 F#
  +   +   +   +    +   +   +   +    +   +   +   +    +   +   +   +
G|----------------|----------------|----------------|----------9-----|
D|5---r-----------|------7-r-----5-|4---r-4-4---r-4-|4---------------|
A|----------------|------------5---|----------------|--4-4-5-5---7---|
E|------3-3---r-3-|r-3-r-----------|----------------|----------------|

  G                                 F#
  +   +   +   +    +   +   +   +    +   +   +   +    +   +   +   +
G|----------------|--/-------------|----------------|----------------|
D|5---r-5-5---r-5-|-79-9-9-9-7-5---|4---r-4-4---r-4-|----------------|
A|----------------|----------------|----------------|-/4-4-5-5-7-7---|
E|----------------|----------------|----------------|----------------|

  G                                 F#
  +   +   +   +    +   +   +   +    +   +   +   +    +   +   +   +
G|----------------|----------------|----------------|----------------|
D|5---r-5-5---r-5-|r-5-r-7-r---5---|4---r-4-4---r-4-|----------------|
A|----------------|----------5---4-|----------------|--4-r-5-r-7-r-5-|
E|----------------|----------------|----------------|----------------|

  G                                 F#
  +   +   +   +    +   +   +   +    +   +   +   +    +   +   +   +
G|----------------|--/-------------|----------------|----------------|
D|5---r-5-5---r-5-|-79-9-9-7---5-5-|4---r-4-4-4---4-|4-4-4-4-4-4-4---|
A|----------------|----------------|----------------|----------------|
E|----------------|----------------|----------------|----------------|

Chorus 2:

  Bm               D                A                Em
  +   +   +   +    +   +   +   +    +   +   +   +    +   +   +   +
G|----------------|----------7-----|----------------|----------9-----|
D|----------9-----|------7-----7---|----------7-----|------9-----9---|
A|------9-----9---|5-------------x-|------7-----7-x-|7---------------|
E|7-------------7-|----------------|5---------------|----------------|

  Bm               D                A                F
  +   +   +   +    +   +   +   +    +   +   +   +    +   +   +   +
G|----------------|----------7-----|----------------|----------------|
D|----------------|------7-----7---|----------7-----|----------------|
A|------9-----9---|5-------------x-|------7-----7---|----------------|
E|7---------7---x-|----------------|5-------------0-|2-----2---2--/6-|

  Bm               D                A                Em
  +   +   +   +    +   +   +   +    +   +   +   +    +   +   +   +
G|----------------|----------7-----|----------------|----------9-----|
D|----------9-----|------7-----7---|----------7-----|------9-----9---|
A|------9-----9---|5-------------x-|------7-----7---|7---------------|
E|7-------------5-|----------------|5-------------x-|----------------|

  Bm               D                C#      A#
  +   +   +   +    +   +   +   +    +   +   +   +    +   +   +   +
G|----------------|----------7-----|----------------|----------------|
D|----------9---r-|------7-----7-/-|11------8~------|----------------|
A|------9-----9-r-|5---------------|----------------|----------------|
E|7---------------|----------------|----------------|----------------|

Bridge:

  Bm               G                A                F#
  +   +   +   +    +   +   +   +    +   +   +   +    +   +   +   +
G|----------------|----------------|----------------|----------------|
D|--9-9-9-9-------|----------------|7-7-r-7-7-9-----|----------------|
A|----------9--9--|r---------------|------------7---|r---------------|
E|7---------------|----------------|----------------|----------------|

  +   +   +   +    +   +   +   +    +   +   +   +    +   +   +   +
G|----------------|----------------|----------------|----------------|
D|9---------------|----------------|7-----7-7-------|----------------|
A|----------9--9--|r---------------|----------7-7---|r---------------|
E|--7-7-7-7-------|----------------|--5-5-----------|----------------|

Verse 3:

  Bm               G                A                Em  F#  G   F#
  +   +   +   +    +   +   +   +    +   +   +   +    +   +   +   +
G|----------------|----------------|----------------|----------------|
D|----------------|----------------|7-7-7-----------|----------------|
A|--------9-9-9---|10109-9-7-7-9---|--------7-7-7---|7-7-9-9-10--9---|
E|7---------------|----------------|----------------|----------------|

  Bm               G                F#
  +   +   +   +    +   +   +   +    +   +   +   +    +   +   +   +
G|----------------|----------------|----------------|----------------|
D|----------------|----------------|----------------|----------------|
A|--------9-9-9---|10109-9-7---9---|9---9---9---9---|9---9---9---9---|
E|7---b-r---------|----------------|--9---9---9---9-|--9---9---------|

Chorus 3:

  Bm               D                A                Em
  +   +   +   +    +   +   +   +    +   +   +   +    +   +   +   +
G|----------------|----------7-----|----------------|----------9-----|
D|----------9-----|------7-----7---|----------7-----|------9-----9---|
A|------9-----9---|5-------------x-|------7-----7-r-|7---------------|
E|7-------------x-|----------------|5---------------|----------------|

  Bm               D                A                F
  +   +   +   +    +   +   +   +    +   +   +   +    +   +   +   +
G|----------------|----------7-----|----------------|----------------|
D|----------9-----|------7-----7---|----------7-----|----------------|
A|------9-----9---|5-------------x-|------7---------|----------------|
E|7-------------7-|----------------|5-----------0---|2-----2---2--/6-|

  Bm               D                A                Em
  +   +   +   +    +   +   +   +    +   +   +   +    +   +   +   +
G|----------------|----------7-----|----------------|--------9-------|
D|----------9---r-|------7-----x---|----------7-----|------9---9-----|
A|------9-----9---|5---------------|------7-----7-r-|7-----------7---|
E|7---------------|----------------|5---------------|----------------|

  Bm               D                C#      A#
  +   +   +   +    +   +   +   +    +   +   +   +    +   +   +   +
G|----------------|----------7-----|----------------|----------------|
D|----------9-----|------7-----7-/-|11------8~------|----------------|
A|------9-----9-r-|5---------------|----------------|----------------|
E|7---------------|----------------|----------------|----------------|

  Bm               D                A                Em
  +   +   +   +    +   +   +   +    +   +   +   +    +   +   +   +
G|----------------|----------7-----|----------------|------9---------|
D|----------9-----|------7-----7---|----------7-----|----9-----------|
A|------9-----9---|5-------------x-|------7-----x-x-|7-----------7---|
E|7-------------x-|----------------|5---------------|----------7---0-|

 Bm               D                A                F
  +   +   +   +    +   +   +   +    +   +   +   +    +   +   +   +
G|----------------|----------7-----|----------------|----------------|
D|----------------|------7---------|----------7-----|----------------|
A|------9---------|5---5-------x---|------7---------|----------------|
E|7---7-----7-x-x-|--------------0-|5-----------x-0-|2-----2---2--/6-|

  Bm               D                A                Em
  +   +   +   +    +   +   +   +    +   +   +   +    +   +   +   +
G|----------------|----------7-----|----------------|----------9-----|
D|----------------|------7-----x---|----------7-----|--------9---9---|
A|------9-----9-r-|5---------------|------7-----7---|7---------------|
E|7---------7-----|----------------|5-------------x-|--------------0-|

  Bm               D                C#      A#
  +   +   +   +    +   +   +   +    +   +   +   +    +   +   +   +
G|----------------|----------7-r---|----------------|----------------|
D|----------------|------7---------|11-12-118~------|~---------------|
A|------9-----9---|5---------------|\--|--/---------|----------------|
E|7---------7---5-|----------------|-\-|-/----------|----------------|
                                       3
  A#
  +   +   +   +    +   +   +   +
G|----------------|----------------|----------------|----------------|
D|~---------------|~---------------|~---------------|~------------\\\|
A|----------------|----------------|----------------|----------------|
E|----------------|----------------|----------------|----------------|


     __   _      __      __      _____   _____   _____
    /  | / |    /  |    /  `\   / ___/  / __ /  (  __/
   /   |/  |   / /||   / /) /  //      / / //   \ \
  / /|   /||  / /^||  / /||   //___   / / //  ___) )
 / / |  / || / /  || / / ||  /    /  /  ^^/  /    / 
 ^^^^^^^^^^^^^^^^^^^^^^^^^^^^^^^^^^^^^^^^^^^^^^^^^
comments
print report bad tab
1 comment total.
0 reply
guibass wrote on February 28 2008, 11:24 am

wow! thanks loads

I want to post or [tab]
guest
You may want to rate the tab now too:
select rating
Please do not post tabs as comments. Select "correction" instead!