Oops, an error
Loading. Please wait.

One Hot Minute Tab

26,618 views 21 this week
2 commentsread comments
1 2 3 4 5
accurate
x 5
Autoscroll
+/-
esc
set tempo
stop
Contributor
Difficulty
novice
WARNING: You are trying to view
                                    content from Ultimate-Guitar.com
                                    in an unauthorized application,
                                    which is prohibited.

                                    Please use an official Ultimate
                                    Guitar Tabs application for iPhone,
                                    iPad or Android to access legitimate
                                    chords, guitar, bass, and drum tabs
                                    from Ultimate-Guitar.com database.

                                    Type "ultimate guitar tabs" in Apple
                                    App Store's or Android Market's
                                    search to find the application.
Red Hot Chili Peppers
One Hot Minute [1995]

NOTE: THIS IS NOT MY WORK, BUT RATHER VARIOUS TABS COMPILED.
IF AUTHOR IS NOT STATED, IT WAS TABBED BY: “Unregistered”

Vox - Anthony Keidis
Guitar - Dave Navarro
Bass - Michael Balzary [Flea]
Drums - Chad Smith

1.  Warped
2.  Aeroplane
3.  Deep Kick
4.  My Friends
5.  Coffee Shop
6.  Pea
7.  One Big Mob
8.  Walkabout
9.  Tearjerker
10. One Hot Minute
11. Falling Into Grace
12. Shallow Be Thy Game
13. Transcending

1.Warped

(Tabbed by Alex V. [redefine78@yahoo.com])

This has got to be one of my fave Chili songs of all time
but it's nowhere on the net. So here ya go!

MAIN RIFF [verse]
E-------------------------------------|
B-------------------------------------|
G-------------------------------------|
D-------------------------------------|
A----5h-7---5h-7---5h-7---5h-7--0-----|
E--0------0------0------0---------5b--|
slight p.m. - - - - - - - - - -|

CHORUS
E----------------------|
B---3-----3-----3------|
G---0-----2-----0------|[Repeat as needed]
D---0-----0-----0------|
A----------------------|
E----------------------|
"... all  the   way..."

[This is used in second half of the 2nd chorus
over the 3 chords used before]
E------------------|----------------------|
B------------------|----------------------|
G---12---11--9-----|---12--11----7---5----|
D------------------|----------------------|
A---10---9---7-----|---10---9----5---3----|
E------------------|----------------------|

E--------------------|--------------------------|
B--------------------|--------------------------|
G---12---11--14------|--17--16--14--12--11-9----| [2x]
D--------------------|--------------------------| [2nd time substitute
A---10---9---12------|--15--14--12--10--9--7----|  last bar w/ the one
E--------------------|--------------------------|  below]

E--------------------------|
B--------------------------|
G--17--17--17--17----------| [using delay]
D--------------------------|
A--15--15--15--15----------|
E--------------------------|

SOLO
Guitar 1 [set delay at 352 milliseconds]
E-------------|-----------|-----------|----------------|
B-------------|--20\sl----|--19-------|----------------|
G---17\sl-----|-----------|--17-------|--------17-17b--|
D-------------|-----------|-----------|--xxxx----------|
A-------------|-----------|-----------|--xxxx----------|
E-------------|-----------|-----------|----------------|

E-----------------------|
B-----------------------|
G--17-17-17-17----------| [Now turn delay off]
D-----------------------|
A--15-15-15-15----------|
E-----------------------|


E--------------------------------------------------|
B--------------------------------------------------|
G--17-19-19-19-19-19-19-19-19-21-21-21-21-21-21-21-|
D--------------------------------------------------|
A--15-17-17-17-17-17-17-17-17-19-19-19-19-19-19-19-|
E--------------------------------------------------|

E--------------------------------------------------|
B--------------------------------------------------|
G--17-17-17-19-19-19-16-16-16-17-17-17-14-14-14-14-|
D--------------------------------------------------|
A--15-15-15-17-17-17-14-14-14-15-15-15-12-12-12-12-|
E--------------------------------------------------|

E-------------------|
B-------------------|
G--12-12-12-12------|[use delay for this bar]
D-------------------|
A--10-10-10-10------|
E-------------------|

E---------------------------------------------------|
B--20-20-20-20-20-20----20-19-19-19-19--------------|
G--------------------19-----------------17-17-17-17-|
D---------------------------------------------------|
A---------------------------------------------------|
E---------------------------------------------------|

E----------------------------------------------------|
B--19-19-19-19-19------------------------------------|
G-----------------17-17-17-17-17-17-17-17-17-17-17---|
D----------------------------------------------------|
A----------------------------------------------------|
E----------------------------------------------------|

E---------------------------------------------------|
B---------------------------------------------------|
G--18-18-18-18-18-18--------------------------------|
D--------------------19-19-19-19-19-19-19-19-19-19--|
A---------------------------------------------------|
E---------------------------------------------------|

E---------------------------------------------|
B---------------------------------------------|
G--19-19-19-19-19-19-19-19-19-19-19-19-19-----|
D---------------------------------------------|
A---------------------------------------------|
E---------------------------------------------|

Guitar 2  [under solo]
[play entire section 4x]
E-----------------------------------|
B-----------------------------------|
G--------------------------------5b-|[3x]
D---7-7-7-7-7-7-7-7-7-7-7-7-7-7-----|
A---0-0-0-0-0-0-0-0-0-0-0-0-0-0-----|
E-----------------------------------|
p.m. - - - - - - - - - - - - - -|

E------------------------------------|
B--------------------8-8-7-7-8-8-7-7-|
G--------------------5-5-5-5-5-5-5-5-|
D---7-7-7-7-7-7-7-7------------------|
A---0-0-0-0-0-0-0-0------------------|
E------------------------------------| [end of section]
p.m. - - - - - - - -|

E----------------------|
B---3-----3-----3------|
G---2-----2-----1------|
D---0-----0-----0------|
A----------------------|
E----------------------|

E-------------------------------------|--------------------------------|
B-------------------------------------|--------------------------------|
G----------------------------------7--|---------------------------7--7-|
D----------------------------------5--|---------------------------5--5-|
A----5h-7---5h-7---5h-7---5h-7--0--0--|----5h-7---5h-7---5h-7--0--0--0-|
E--0------0------0------0-------------|--0------0------0---------------|
slight p.m. - - - - - - - - - - -|         - - - - - - - - - - - |

E---------------------------|--------------------|
B---------------------------|--------------------|
G--------------------7-7-7--|-----------7-7-7-7--|
D--------------------5-5-5--|-----------5-5-5-5--|
A----5h-7---5h-7--0--0-0-0--|---5h-7-0--0-0-0-0--|
E--0------0-----------------|--0-----------------|
slight p.m. - - - |             - - |

Section after last chorus
E-------------------------------------------------------|
B--8--x-8--x-8-x-8--x-8-8-- <- Guitar 2-----------------|
G--7--x-7--x-7-x-7--x-7-7-- <---------------------------|
D-------------------------- [Repeat until mellow outro--|
A-------------------------------------------------------|
E--2--2-0--0-2-2-0--0-5-4-- <- Guitar 1-----------------|

OUTRO [Tempo slows a lot]
[Clean tone]
E-----------4-------|-------4-----|----------4-----6-|
B---7---6---4-------|--4----4-----|--7---6---4-----4-|
G---6---6---4-------|--4----4-----|--6---6---4-----4-|
D---6---6---6-------|--4----6-----|--6---6---6-----6-|
A-------------------|-------------|------------------|
E-------------------|-------------|------------------|

E-------4-----|--7-------|--7--------|------------|------|
B--4----4-----|--9-------|--9--------|--9---------|--9---|
G--4----4-----|--9-------|--9--------|--9---------|--9---|
D--4----6-----|--7-------|--7--------|--8---------|--8---|
A-------------|--7-------|--7--------|--9---------|--9---|
E-------------|----------|-----------|------------|------|

E---0-------|--------------|-----------|
B---0-------|--9-----------|-0---------|
G---6-------|--9-----------|-7---------|
D---5-------|--9-----------|-5---------|
A---0-------|--7-----------|-7---------|
E-----------|--0-----------|-----------|

2. Aeroplane [tabbed by Unregistered]

Intro:

|--3~~------3~~------5~~----6----------------------------|
|--6~~------3~~------3~~-------------3------------5~~----|
|--3~~------3~~------3~~-----------------3--------5~~----|
|--3~~------5~~------3~~--------------------------5~~----|
|--3~~------3~~------3~~--------------------------3~~----|
|--------------------------------------------------------|

|--6~~----5--------------3----3~~------------------------|
|--3~~-----------6------------3~~----------3~~------5~~--|
|--3~~---------------3--------5~~------5---3~~------5~~--|
|--3~~------------------------5~~----------3~~------5~~--|
|--3~~------------------------3~~----------3~~------3~~--|
|--------------------------------------------------------|

Chorus:

|-6-6-6-6-6-6-6-6-6-6-6-6-6-6-6-6-6-6-6-6-6-6-6-6-6-6-6-6-6-6-6-6|
|-6-6-6-6-6-6-6-6-6-6-6-6-6-6-6-6-5-5-5-5-5-5-5-5-5-5-5-5-5-5-5-5|
|-5-5-5-5-5-5-5-5-5-5-5-5-5-5-5-5-5-5-5-5-5-5-5-5-5-5-5-5-5-5-5-5|
|----------------------------------------------------------------|
|----------------------------------------------------------------|
|----------------------------------------------------------------|
							 Repeat X6


Verse:

|--18---x--18------18---x--18------18--x--18------18---x--18---|
|--18---x--18------18---x--18------17--x--17------17---x--17---|
|--------------------------------------------------------------|
|--------------------------------------------------------------|
|--------------------------------------------------------------|
|--------------------------------------------------------------|
						       Repeat X8


Bridge:

|----------------------------------------------------------------|
|-6-6-6-6-6-6-6-6-6-3-3-3-3-3-3-3-3-3-3-3-3-3-3-3-3---3-3-3-3-3-3|
|-3-3-3-3-3-3-3-3-3-3-5-5-5-5-5-5-5-3-3-3-3-3-3-3-3---3-3-3-3-3-3|
|-3-3-3-3-3-3-3-3-3-3-3-3-3-3-3-3-3-3-3-3-3-3-3-3-3-5-5-5-5-5-5-5|
|----------------------------------------------------------------|
|----------------------------------------------------------------|

Solo:

|---------------------------17^-----17--15----15-----------------|
|--18^----(18)------18--15-----------------18----18^-------------|
|-------------------------------------------------------17--17---|
|----------------------------------------------------------------|
|----------------------------------------------------------------|
|----------------------------------------------------------------|

|----------------------------------------------------------------|
|----------------------------------------------------------------|
|--15------------------------------------------------------------|
|-------17--15--17---15--17--------------------------------------|
|---------------------------15---15--15--------15^------(15)~~~~-|
|----------------------------------------------------------------|

|----------------------------------------------------------------|
|----------------------------------------------------------------|
|----------------------------------------------------------------|
|----------------------------------------------------------------|
|--15^~~~--15^~~~--15^~~~--15^~~~--15^~~~--15^~~~--15^~~~--15^~~-|
|----------------------------------------------------------------|

|----------------------------------------------------------------|
|----------------------------------------------------------------|
|----------------------------------------------------------------|
|----------------------------------------------------------------|
|--15--13--15^---(16)---15^---15----------15--13^--------13-15-13|
|---------------------------------15--13-----------13-15---------|

|----------------------------------------------------------------|
|----------------------------------------------------------------|
|----------------------------------------------------------------|
|----------------------------------------------------3--5--3--5--|
|------------13------13-15-13--------------3--1-1-3--------------|
|--15--13-15-----15------------15\-1^---3------------------------|

|-----------------------------------------------------------6----|
|--------------5-----------------6--8^----(8)------6--6--8-------|
|--3-----3-5^-----3--5--3---5\7----------------------------------|
|-----5----------------------------------------------------------|
|----------------------------------------------------------------|
|----------------------------------------------------------------|

|--8^----(8)--6--8-8^--8--6--8--6---6----------------------------|
|----------------------------------8--8-6-8-6---6----------------|
|---------------------------------------------7---7\5-3-5-3--3-3-|
|-----------------------------------------------------------5----|
|----------------------------------------------------------------|
|----------------------------------------------------------------|

|---------------------------3-x----------------------------------|
|----------------------5-3--3-x-5--x-x-x-x-5--5^--5~-------------|
|----3-5------------3--5-3------5--x-x-x-x-5--5^--5~-5^--5-3--4~-|
|--5-------5-3--5-5----------------------------------------------|
|----------------------------------------------------------------|
|----------------------------------------------------------------|

|----------------------------------------------------------------|
|----------------------------------------------------------------|
|-----------------------------------10---------------------------|
|--5--3--5--3--5~~~~~~~~~~~---------9----------------------------|
|-----------------------------------10---------------------------|
|----------------------------------------------------------------|


Lyrics:

-chorus-
I like pleasure spiked with pain
and music is my aeroplane
it's my aeroplane
Songbird sweet and sour Jane
and music is my aeroplane
it's my aeroplane
pleasure spiked with pain
that motherfucker's always spiked with pain

Looking in my own eyes, hello
I can find the love I want
Someone better slap me
before I start to rust
before I start to decompose

Looking in my rear view mirror
Looking in my rear view mirror
I can make it disapear
I can make it disapear, have no fear

-repeat chorus-

Sitting in my kitchen
I'm turning into dust again
My melancholy baby
the star of mazy must
push her voice inside of me

I'm overcoming gravity
I'm overcoming gravity
It's easy when you're sad to be
It's easy when you're sad
Saddle up me

-repeat chorus-

Just one note could make me float
could make me float away
One note from the song
she wrote could fuck me where I lay
Just one note could make me choke
one note that's not a lie
Just on enote could cut my throat
one note could make me die

-repeat chorus-

3. Deep Kick

     W                   H        Q    E  E     W
E||-------------------|----------------------|-------------------|
B||-------------------|----------------------|-------------------|
G||-------------------|-------------------x--|-------------------|
D||-------------------|-------------------x--|-------------------|
A||-------------------|-------------------x--|-------------------|
E||-------------------|----------------------|-------------------|


  W                   W                   W                   W
-------------------|-------------------|-------------------|-------------------|
-------------------|-------------------|-------------------|-------------------|
-------------------|-------------------|-------------------|-------------------|
-------------------|-------------------|-------------------|--5----------------|
-------------------|-------------------|-------------------|--0----------------|
-------------------|-------------------|-------------------|-------------------|


  W                   W                   W                   W
-------------------|-------------------|-------------------|-------------------|
-------------------|-------------------|-------------------|-------------------|
-------------------|-------------------|-------------------|-------------------|
--L----------------|--2----------------|--L----------------|--5----------------|
--L----------------|--0----------------|--L----------------|--0----------------|
-------------------|-------------------|-------------------|-------------------|


  W                   W                   W                   W
-------------------|-------------------|-------------------|-------------------|
-------------------|-------------------|-------------------|-------------------|
-------------------|-------------------|-------------------|-------------------|
--L----------------|--7----------------|--L----------------|--7----------------|
--L----------------|--0----------------|--L----------------|--0----------------|
-------------------|-------------------|-------------------|-------------------|


  W                   Q.     E  H           W
-------------------|---------------------|-------------------|
-------------------|---------------------|-------------------|
-------------------|---------------------|-------------------|
--L----------------|--L------7--L--------|--L----------------|
--L----------------|--L------0--L--------|--L----------------|
-------------------|---------------------|-------------------|


  Q.     E  H           W                   W
---------------------|-------------------|-------------------|
---------------------|-------------------|-------------------|
---------------------|-------------------|-------------------|
--L------7--L--------|--L----------------|-------------------|
--L------0--L--------|--L----------------|-------------------|
---------------------|-------------------|-------------------|


  W                   W                   W                   W
-------------------|-------------------|-------------------|-------------------|
-------------------|-------------------|-------------------|-------------------|
-------------------|-------------------|-------------------|-------------------|
-------------------|--5----------------|--L----------------|--2----------------|
-------------------|--0----------------|--L----------------|--0----------------|
-------------------|-------------------|-------------------|-------------------|


  W                   W                   W                   W
-------------------|-------------------|-------------------|-------------------|
-------------------|-------------------|-------------------|-------------------|
-------------------|-------------------|-------------------|-------------------|
--L----------------|--5----------------|--L----------------|-------------------|
--L----------------|--0----------------|--L----------------|-------------------|
-------------------|-------------------|-------------------|-------------------|


  W                   W                   W                   W
-------------------|-------------------|-------------------|-------------------|
-------------------|-------------------|-------------------|-------------------|
-------------------|-------------------|-------------------|-------------------|
-------------------|-------------------|-------------------|-------------------|
-------------------|-------------------|-------------------|-------------------|
-------------------|-------------------|-------------------|-------------------|


  W                   W                   W
-------------------|-------------------|-------------------|
-------------------|-------------------|-------------------|
-------------------|-------------------|-------------------|
-------------------|-------------------|-------------------|
-------------------|-------------------|-------------------|
-------------------|-------------------|-------------------|


  S S  E   E  E   S  S S  S S S  S  S    S S  E   E  E   S  S S  S S S  S  S
--------------------------------------|--------------------------------------|
--x-x-15--12-----12-12-x-12-L-x-15-12-|--x-x-15--12-----12-12-x-12-L-x-15-12-|
--x-x-12--12-----12-12-x-12-L-x-12-12-|--x-x-12--12-----12-12-x-12-L-x-12-12-|
--------------------------------------|--------------------------------------|
--------------------------------------|--------------------------------------|
--------------0-----------------------|--------------0-----------------------|


  S S  E   E  E   S  S S  S S S  S  S    S S  E   E  E   S  S S  S S S  S  S
--------------------------------------|--------------------------------------|
--x-x-15--12-----12-12-x-12-L-x-15-12-|--x-x-15--12-----12-12-x-12-L-x-15-12-|
--x-x-12--12-----12-12-x-12-L-x-12-12-|--x-x-12--12-----12-12-x-12-L-x-12-12-|
--------------------------------------|--------------------------------------|
--------------------------------------|--------------------------------------|
--------------0-----------------------|--------------0-----------------------|


  S  S  S  S  S  S  S  S  S S  S  S S  S  E
----15-15-15-15-15-15-15---------------------|
----14-14-14-14-14-14-14-12---12-12---15-12--|
-------------------------12---12-12---12-12--|
---------------------------------------------|
---------------------------------------------|
---------------------------------------------|


  S S  E   E  E   S  S S  S S S  S  S    S S  E   E  E   S  S S  S S S  S  S
--------------------------------------|--------------------------------------|
--x-x-15--12-----12-12-x-12-L-x-15-12-|--x-x-15--12-----12-12-x-12-L-x-15-12-|
--x-x-12--12-----12-12-x-12-L-x-12-12-|--x-x-12--12-----12-12-x-12-L-x-12-12-|
--------------------------------------|--------------------------------------|
--------------------------------------|--------------------------------------|
--------------0-----------------------|--------------0-----------------------|


  S S  E   E  E   S  S S  S S S  S  S
--------------------------------------|
--x-x-15--12-----12-12-x-12-L-x-15-12-|
--x-x-12--12-----12-12-x-12-L-x-12-12-|
--------------------------------------|
--------------------------------------|
--------------0-----------------------|


  S  S  S  S  S  S  S  S  S S  S  S S  S  E
----15-15-15-15-15-15-15---------------------|
----14-14-14-14-14-14-14-12---12-12---15-12--|
-------------------------12---12-12---12-12--|
---------------------------------------------|
---------------------------------------------|
---------------------------------------------|


  S S  E   E  E   S  S S  S S S  S  S    S S  E   E  E   S  S S  S S S  S  S
--------------------------------------|--------------------------------------|
--x-x-15--12-----12-12-x-12-L-x-15-12-|--x-x-15--12-----12-12-x-12-L-x-15-12-|
--x-x-12--12-----12-12-x-12-L-x-12-12-|--x-x-12--12-----12-12-x-12-L-x-12-12-|
--------------------------------------|--------------------------------------|
--------------------------------------|--------------------------------------|
--------------0-----------------------|--------------0-----------------------|


  S S  E   E  E   S  S S  S S S  S  S
--------------------------------------|
--x-x-15--12-----12-12-x-12-L-x-15-12-|
--x-x-12--12-----12-12-x-12-L-x-12-12-|
--------------------------------------|
--------------------------------------|
--------------0-----------------------|


  S  S  S  S  S  S  S  S  S S  S  S S  S  E
----12-12-12-12-12-12-12---------------------|
----14-14-14-14-14-14-14-12---12-12---15-12--|
-------------------------12---12-12---12-12--|
---------------------------------------------|
---------------------------------------------|
---------------------------------------------|


  S S  E   E  E   S  S S  S S S  S  S    S S  E   E  E   S  S S  S S S  S  S
--------------------------------------|--------------------------------------|
--x-x-15--12-----12-12-x-12-L-x-15-12-|--x-x-15--12-----12-12-x-12-L-x-15-12-|
--x-x-12--12-----12-12-x-12-L-x-12-12-|--x-x-12--12-----12-12-x-12-L-x-12-12-|
--------------------------------------|--------------------------------------|
--------------------------------------|--------------------------------------|
--------------0-----------------------|--------------0-----------------------|


  S S  E   E  E   S  S S  S S S  S  S    S S  E   E   E   S S S  S S  S  S  S
--------------------------------------|---------------------------------------|
--x-x-15--12-----12-12-x-12-L-x-15-12-|--x-x-15--12------12---x-12-x-12-15-12-|
--x-x-12--12-----12-12-x-12-L-x-12-12-|--x-x-12--12--15--12---x-12-x-12-12-12-|
--------------------------------------|--------------15-----------------------|
--------------------------------------|---------------------------------------|
--------------0-----------------------|---------------------------------------|


  S S  E   E   E   S S S  S S  S  S  S    S S  E   E   E   S S S  S S  S  S  S
---------------------------------------|---------------------------------------|
--x-x-15--12------12---x-12-x-12-15-12-|--x-x-15--12------12---x-12-x-12-15-12-|
--x-x-12--12--15--12---x-12-x-12-12-12-|--x-x-12--12--15--12---x-12-x-12-12-12-|
--------------15-----------------------|--------------15-----------------------|
---------------------------------------|---------------------------------------|
---------------------------------------|---------------------------------------|


  S S  E   E   E   S S S  S S  S  S  S    S S  E   E   E   S S S  S S  S  S  S
---------------------------------------|---------------------------------------|
--x-x-15--12------12---x-12-x-12-15-12-|--x-x-15--12------12---x-12-x-12-15-12-|
--x-x-12--12--15--12---x-12-x-12-12-12-|--x-x-12--12--15--12---x-12-x-12-12-12-|
--------------15-----------------------|--------------15-----------------------|
---------------------------------------|---------------------------------------|
---------------------------------------|---------------------------------------|


  S S  E   E   E   S S S  S S  S  S  S    S S  E   E   E   S S S  S S  S  S  S
---------------------------------------|---------------------------------------|
--x-x-15--12------12---x-12-x-12-15-12-|--x-x-15--12------12---x-12-x-12-15-12-|
--x-x-12--12--15--12---x-12-x-12-12-12-|--x-x-12--12--15--12---x-12-x-12-12-12-|
--------------15-----------------------|--------------15-----------------------|
---------------------------------------|---------------------------------------|
---------------------------------------|---------------------------------------|


  S S  E   E   E   S S S  S S  S  S  S    S S  E   E   E   S S S  S S  S  S  S
---------------------------------------|---------------------------------------|
--x-x-15--12------12---x-12-x-12-15-12-|--x-x-15--12------12---x-12-x-12-15-12-|
--x-x-12--12--15--12---x-12-x-12-12-12-|--x-x-12--12--15--12---x-12-x-12-12-12-|
--------------15-----------------------|--------------15-----------------------|
---------------------------------------|---------------------------------------|
---------------------------------------|---------------------------------------|


  Q    E  E  E  E  Q       E  Q    E  Q    Q       Q    E  E  E  E  Q
--3----3--3--L--3--3----|--3--3----3--3----3----|--0----0--0--L--0--0----|
--3----3--3--L--3--3----|--3--3----3--3----3----|--0----0--0--L--0--0----|
--5----5--5--L--5--5----|--5--5----5--5----5----|--2----2--2--L--2--2----|
--5----5--5--L--5--5----|--5--5----5--5----5----|--2----2--2--L--2--2----|
--3----3--3--L--3--3----|--3--3----3--3----3----|--0----0--0-----0--0----|
------------------------|-----------------------|------------------------|


  E  Q    E  Q    Q       S S  E   E   E   S S S  S S  S  S  S
--0--0----0--0----0----|---------------------------------------|
--0--0----0--0----0----|--x-x-15--12------12---x-12-x-12-15-12-|
--2--2----2--2----2----|--x-x-12--12--15--12---x-12-x-12-12-12-|
--2--2----2--2----2----|--------------15-----------------------|
--0--0----0--0----0----|---------------------------------------|
-----------------------|---------------------------------------|


  S S  E   E   E   S S S  S S  S  S  S    S S  E   E   E   S S S  S S  S  S  S
---------------------------------------|---------------------------------------|
--x-x-15--12------12---x-12-x-12-15-12-|--x-x-15--12------12---x-12-x-12-15-12-|
--x-x-12--12--15--12---x-12-x-12-12-12-|--x-x-12--12--15--12---x-12-x-12-12-12-|
--------------15-----------------------|--------------15-----------------------|
---------------------------------------|---------------------------------------|
---------------------------------------|---------------------------------------|


  S S  E   E   E   S S S  S S  S  S  S    Q    E  E  E  E  Q
---------------------------------------|--3----3--3--L--3--3----|
--x-x-15--12------12---x-12-x-12-15-12-|--3----3--3--L--3--3----|
--x-x-12--12--15--12---x-12-x-12-12-12-|--5----5--5--L--5--5----|
--------------15-----------------------|--5----5--5--L--5--5----|
---------------------------------------|--3----3--3--L--3--3----|
---------------------------------------|------------------------|


  E  Q    E  Q    Q       Q    E  E  E  E  Q       E  Q    E  Q    Q
--3--3----3--3----3----|--0----0--0--L--0--0----|--0--0----0--0----0----|
--3--3----3--3----3----|--0----0--0--L--0--0----|--0--0----0--0----0----|
--5--5----5--5----5----|--2----2--2--L--2--2----|--2--2----2--2----2----|
--5--5----5--5----5----|--2----2--2--L--2--2----|--2--2----2--2----2----|
--3--3----3--3----3----|--0----0--0-----0--0----|--0--0----0--0----0----|
-----------------------|------------------------|-----------------------|


  S S  E   E   E   S S S  S S  S  S  S    S S  E   E   E   S S S  S S  S  S  S
---------------------------------------|---------------------------------------|
--x-x-15--12------12---x-12-x-12-15-12-|--x-x-15--12------12---x-12-x-12-15-12-|
--x-x-12--12--15--12---x-12-x-12-12-12-|--x-x-12--12--15--12---x-12-x-12-12-12-|
--------------15-----------------------|--------------15-----------------------|
---------------------------------------|---------------------------------------|
---------------------------------------|---------------------------------------|


  S S  E   E   E   S S S  S S  S  S  S    S S  E   E   E   S S S  S S  S  S  S
---------------------------------------|---------------------------------------|
--x-x-15--12------12---x-12-x-12-15-12-|--x-x-15--12------12---x-12-x-12-15-12-|
--x-x-12--12--15--12---x-12-x-12-12-12-|--x-x-12--12--15--12---x-12-x-12-12-12-|
--------------15-----------------------|--------------15-----------------------|
---------------------------------------|---------------------------------------|
---------------------------------------|---------------------------------------|


  S S  E   E   E   S S S  S S  S  S  S    S S  E   E   E   S S S  S S  S  S  S
---------------------------------------|---------------------------------------|
--x-x-15--12------12---x-12-x-12-15-12-|--x-x-15--12------12---x-12-x-12-15-12-|
--x-x-12--12--15--12---x-12-x-12-12-12-|--x-x-12--12--15--12---x-12-x-12-12-12-|
--------------15-----------------------|--------------15-----------------------|
---------------------------------------|---------------------------------------|
---------------------------------------|---------------------------------------|


  S S  E   E   E   S S S  S S  S  S  S    S S  E   E   E   S S S  S S  S  S  S
---------------------------------------|---------------------------------------|
--x-x-15--12------12---x-12-x-12-15-12-|--x-x-15--12------12---x-12-x-12-15-12-|
--x-x-12--12--15--12---x-12-x-12-12-12-|--x-x-12--12--15--12---x-12-x-12-12-12-|
--------------15-----------------------|--------------15-----------------------|
---------------------------------------|---------------------------------------|
---------------------------------------|---------------------------------------|


  S S  E   E   E   S S S  S S  S  S  S    S S  E   E   E   S S S  S S  S  S  S
---------------------------------------|---------------------------------------|
--x-x-15--12------12---x-12-x-12-15-12-|--x-x-15--12------12---x-12-x-12-15-12-|
--x-x-12--12--15--12---x-12-x-12-12-12-|--x-x-12--12--15--12---x-12-x-12-12-12-|
--------------15-----------------------|--------------15-----------------------|
---------------------------------------|---------------------------------------|
---------------------------------------|---------------------------------------|


  S S  E   E   E   S S S  S S  S  S  S    S S  E   E   E   S S S  S S  S  S  S
---------------------------------------|---------------------------------------|
--x-x-15--12------12---x-12-x-12-15-12-|--x-x-15--12------12---x-12-x-12-15-12-|
--x-x-12--12--15--12---x-12-x-12-12-12-|--x-x-12--12--15--12---x-12-x-12-12-12-|
--------------15-----------------------|--------------15-----------------------|
---------------------------------------|---------------------------------------|
---------------------------------------|---------------------------------------|


  S S  E   E   E   S S S  S S  S  S  S    Q    E  E  E  E  Q
---------------------------------------|--3----3--3--L--3--3----|
--x-x-15--12------12---x-12-x-12-15-12-|--3----3--3--L--3--3----|
--x-x-12--12--15--12---x-12-x-12-12-12-|--5----5--5--L--5--5----|
--------------15-----------------------|--5----5--5--L--5--5----|
---------------------------------------|--3----3--3--L--3--3----|
---------------------------------------|------------------------|


  E  Q    E  Q    Q       Q    E  E  E  E  Q       E  Q    E  Q    Q
--3--3----3--3----3----|--0----0--0--L--0--0----|--0--0----0--0----0----|
--3--3----3--3----3----|--0----0--0--L--0--0----|--0--0----0--0----0----|
--5--5----5--5----5----|--2----2--2--L--2--2----|--2--2----2--2----2----|
--5--5----5--5----5----|--2----2--2--L--2--2----|--2--2----2--2----2----|
--3--3----3--3----3----|--0----0--0-----0--0----|--0--0----0--0----0----|
-----------------------|------------------------|-----------------------|


  Q    E  E  E  E  Q       E  Q    E  Q    Q       Q    E  E  E  E  Q
--3----3--3--L--3--3----|--3--3----3--3----3----|--0----0--0--L--0--0----|
--3----3--3--L--3--3----|--3--3----3--3----3----|--0----0--0--L--0--0----|
--5----5--5--L--5--5----|--5--5----5--5----5----|--2----2--2--L--2--2----|
--5----5--5--L--5--5----|--5--5----5--5----5----|--2----2--2--L--2--2----|
--3----3--3--L--3--3----|--3--3----3--3----3----|--0----0--0-----0--0----|
------------------------|-----------------------|------------------------|


  E  Q    E  Q    Q       Q    E  E  E  E  Q       E  Q    E  Q    Q
--0--0----0--0----0----|--3----3--3--L--3--3----|--3--3----3--3----3----|
--0--0----0--0----0----|--3----3--3--L--3--3----|--3--3----3--3----3----|
--2--2----2--2----2----|--0----0--0--L--0--0----|--0--0----0--0----0----|
--2--2----2--2----2----|--0----0--0-----0--0----|--0--0----0--0----0----|
--0--0----0--0----0----|------------------------|-----------------------|
-----------------------|--3----3--3--L--3--3----|--3--3----3--3----3----|


  Q    E  E  E  E  Q       E  Q    E  Q    Q       Q    E  E  E  E  Q
------------------------|-----------------------|--3----3--3--L--3--3----|
--2----2--2--L--2--2----|--2--2----2--2----2----|--3----3--3--L--3--3----|
--2----2--2--L--2--2----|--2--2----2--2----2----|--0----0--0--L--0--0----|
--2----2--2--L--2--2----|--2--2----2--2----2----|--0----0--0-----0--0----|
--0----0--0-----0--0----|--0--0----0--0----0----|------------------------|
------------------------|-----------------------|--3----3--3--L--3--3----|


  E  Q    E  Q    Q       Q    E  E  E  E  Q       E  Q    E  Q    Q
--3--3----3--3----3----|------------------------|-----------------------|
--3--3----3--3----3----|--2----2--2--L--2--2----|--2--2----2--2----2----|
--0--0----0--0----0----|--2----2--2--L--2--2----|--2--2----2--2----2----|
--0--0----0--0----0----|--2----2--2--L--2--2----|--2--2----2--2----2----|
-----------------------|--0----0--0-----0--0----|--0--0----0--0----0----|
--3--3----3--3----3----|------------------------|-----------------------|


  Q    E  E  E  E  Q       E  Q    E  Q    Q       Q    E  E  E  E  Q
------------------------|-----------------------|------------------------|
--5----5--5--L--5--5----|--5--5----5--5----5----|--7----7--7--L--7--7----|
--5----5--5--L--5--5----|--5--5----5--5----5----|--7----7--7--L--7--7----|
--5----5--5--L--5--5----|--5--5----5--5----5----|--7----7--7--L--7--7----|
--3----3--3-----3--3----|--3--3----3--3----3----|--5----5--5-----5--5----|
------------------------|-----------------------|------------------------|


  E  Q    E  Q    Q       W                   W
-----------------------|-------------------|-------------------|
--7--7----7--7----8----|-------------------|-------------------|
--7--7----7--7----8----|-------------------|-------------------|
--7--7----7--7----8----|-------------------|-------------------|
--5--5----5--5----6----|-------------------|-------------------|
-----------------------|-------------------|-------------------|


  W                   W                   W
-------------------|-------------------|-------------------|
-------------------|-------------------|-------------------|
-------------------|-------------------|-------------------|
-------------------|-------------------|-------------------|
-------------------|-------------------|-------------------|
-------------------|-------------------|-------------------|


  S S  E   E  E   S  S S  S S S  S  S    S S  E   E  E   S  S S  S S S  S  S
--------------------------------------|--------------------------------------|
--x-x-15--12-----12-12-x-12-L-x-15-12-|--x-x-15--12-----12-12-x-12-L-x-15-12-|
--x-x-12--12-----12-12-x-12-L-x-12-12-|--x-x-12--12-----12-12-x-12-L-x-12-12-|
--------------------------------------|--------------------------------------|
--------------------------------------|--------------------------------------|
--------------0-----------------------|--------------0-----------------------|


  S S  E   E  E   S  S S  S S S  S  S    S S  E   E  E   S  S S  S S S  S  S
--------------------------------------|--------------------------------------|
--x-x-15--12-----12-12-x-12-L-x-15-12-|--x-x-15--12-----12-12-x-12-L-x-15-12-|
--x-x-12--12-----12-12-x-12-L-x-12-12-|--x-x-12--12-----12-12-x-12-L-x-12-12-|
--------------------------------------|--------------------------------------|
--------------------------------------|--------------------------------------|
--------------0-----------------------|--------------0-----------------------|


  S S  E   E  E   S  S S  S S S  S  S    S S  E   E  E   S  S S  S S S  S  S
--------------------------------------|--------------------------------------|
--x-x-15--12-----12-12-x-12-L-x-15-12-|--x-x-15--12-----12-12-x-12-L-x-15-12-|
--x-x-12--12-----12-12-x-12-L-x-12-12-|--x-x-12--12-----12-12-x-12-L-x-12-12-|
--------------------------------------|--------------------------------------|
--------------------------------------|--------------------------------------|
--------------0-----------------------|--------------0-----------------------|


  S S  E   E  E   S  S S  S S S  S  S    S S  E   E  E   S  S S  S S S  S  S
--------------------------------------|--------------------------------------|
--x-x-15--12-----12-12-x-12-L-x-15-12-|--x-x-15--12-----12-12-x-12-L-x-15-12-|
--x-x-12--12-----12-12-x-12-L-x-12-12-|--x-x-12--12-----12-12-x-12-L-x-12-12-|
--------------------------------------|--------------------------------------|
--------------------------------------|--------------------------------------|
--------------0-----------------------|--------------0-----------------------|


  S S  E   E  E   S  S S  S S S  S  S    S S  E   E  E   S  S S  S S S  S  S
--------------------------------------|--------------------------------------|
--x-x-15--12-----12-12-x-12-L-x-15-12-|--x-x-15--12-----12-12-x-12-L-x-15-12-|
--x-x-12--12-----12-12-x-12-L-x-12-12-|--x-x-12--12-----12-12-x-12-L-x-12-12-|
--------------------------------------|--------------------------------------|
--------------------------------------|--------------------------------------|
--------------0-----------------------|--------------0-----------------------|


  S S  E   E  E   S  S S  S S S  S  S    S S  E   E  E   S  S S  S S S  S  S
--------------------------------------|--------------------------------------|
--x-x-15--12-----12-12-x-12-L-x-15-12-|--x-x-15--12-----12-12-x-12-L-x-15-12-|
--x-x-12--12-----12-12-x-12-L-x-12-12-|--x-x-12--12-----12-12-x-12-L-x-12-12-|
--------------------------------------|--------------------------------------|
--------------------------------------|--------------------------------------|
--------------0-----------------------|--------------0-----------------------|


  S S  E   E  E   S  S S  S S S  S  S    S S  E   E  E   S  S S  S S S  S  S
--------------------------------------|--------------------------------------|
--x-x-15--12-----12-12-x-12-L-x-15-12-|--x-x-15--12-----12-12-x-12-L-x-15-12-|
--x-x-12--12-----12-12-x-12-L-x-12-12-|--x-x-12--12-----12-12-x-12-L-x-12-12-|
--------------------------------------|--------------------------------------|
--------------------------------------|--------------------------------------|
--------------0-----------------------|--------------0-----------------------|


  S S  E   E  E   S  S S  S S S  S  S    S S  E   E  E   S  S S  S S S  S  S
--------------------------------------|--------------------------------------|
--x-x-15--12-----12-12-x-12-L-x-15-12-|--x-x-15--12-----12-12-x-12-L-x-15-12-|
--x-x-12--12-----12-12-x-12-L-x-12-12-|--x-x-12--12-----12-12-x-12-L-x-12-12-|
--------------------------------------|--------------------------------------|
--------------------------------------|--------------------------------------|
--------------0-----------------------|--------------0-----------------------|


  S S  E   E  E   S  S S  S S S  S  S    S S  E   E  E   S  S S  S S S  S  S
--------------------------------------|--------------------------------------|
--x-x-15--12-----12-12-x-12-L-x-15-12-|--x-x-15--12-----12-12-x-12-L-x-15-12-|
--x-x-12--12-----12-12-x-12-L-x-12-12-|--x-x-12--12-----12-12-x-12-L-x-12-12-|
--------------------------------------|--------------------------------------|
--------------------------------------|--------------------------------------|
--------------0-----------------------|--------------0-----------------------|


  S S  E   E  E   S  S S  S S S  S  S    S S  E   E  E   S  S S  S S S  S  S
--------------------------------------|--------------------------------------|
--x-x-15--12-----12-12-x-12-L-x-15-12-|--x-x-15--12-----12-12-x-12-L-x-15-12-|
--x-x-12--12-----12-12-x-12-L-x-12-12-|--x-x-12--12-----12-12-x-12-L-x-12-12-|
--------------------------------------|--------------------------------------|
--------------------------------------|--------------------------------------|
--------------0-----------------------|--------------0-----------------------|


  S S  E   E  E   S  S S  S S S  S  S    S S  E   E  E   S  S S  S S S  S  S
--------------------------------------|--------------------------------------|
--x-x-15--12-----12-12-x-12-L-x-15-12-|--x-x-15--12-----12-12-x-12-L-x-15-12-|
--x-x-12--12-----12-12-x-12-L-x-12-12-|--x-x-12--12-----12-12-x-12-L-x-12-12-|
--------------------------------------|--------------------------------------|
--------------------------------------|--------------------------------------|
--------------0-----------------------|--------------0-----------------------|


  S S  E   E  E   S  S S  S S S  S  S    S S  E   E  E   S  S S  S S S  S  S
--------------------------------------|--------------------------------------|
--x-x-15--12-----12-12-x-12-L-x-15-12-|--x-x-15--12-----12-12-x-12-L-x-15-12-|
--x-x-12--12-----12-12-x-12-L-x-12-12-|--x-x-12--12-----12-12-x-12-L-x-12-12-|
--------------------------------------|--------------------------------------|
--------------------------------------|--------------------------------------|
--------------0-----------------------|--------------0-----------------------|


  S S  E   E  E   S  S S  S S S  S  S    Q    E.  S E  S S S S S S
--------------------------------------|--0----L---0-0--0-0---0-x-x-|
--x-x-15--12-----12-12-x-12-L-x-15-12-|--0----L---0-0--0-0-L-0-x-x-|
--x-x-12--12-----12-12-x-12-L-x-12-12-|--2----L---2-2--2-2-L-2-x-x-|
--------------------------------------|--2----L---2-2--2-2-L-2-x-x-|
--------------------------------------|--0----L---0-0--0-0-L-0-x-x-|
--------------0-----------------------|----------------------------|


  Q    E  S S E  S S S S S S    Q    E  S S E  S S S S S S
-----------------------------|--2----2--2-2-2--2-3-L-2-x-x-|
--6----6--6-6-6--6-6-L-6-x-x-|--3----3--3-3-3--3-3-L-3-x-x-|
--6----6--6-6-6--6-6-L-6-x-x-|--2----2--2-2-2--2-2-L-2-x-x-|
--6----6--6-6-6--6-6---6-x-x-|--0----0--0-0-0--0-0-L-0-x-x-|
--4----4--4-4-4--4-4-L-4-x-x-|-----------------------------|
-----------------------------|-----------------------------|


  Q    E  S S E  S S S S S S    Q    E.  S E  S S S S S S
--0----0--0-0-0--0-0-L-0-x-x-|--0----L---0-0--0-0---0-x-x-|
--0----0--0-0-0--0-0-L-0-x-x-|--0----L---0-0--0-0-L-0-x-x-|
--1----1--1-1-1--1-1-L-1-x-x-|--2----L---2-2--2-2-L-2-x-x-|
--2----2--2-2-2--2-2-L-2-x-x-|--2----L---2-2--2-2-L-2-x-x-|
--2----2--2-2-2--2-2-L-2-x-x-|--0----L---0-0--0-0-L-0-x-x-|
--0----0--0-0-0--0-0-L-0-x-x-|----------------------------|


  Q    E  S S E  S S S S S S    Q    E  S S E  S S S S S S
-----------------------------|--2----2--2-2-2--2-3-L-2-x-x-|
--6----6--6-6-6--6-6-L-6-x-x-|--3----3--3-3-3--3-3-L-3-x-x-|
--6----6--6-6-6--6-6-L-6-x-x-|--2----2--2-2-2--2-2-L-2-x-x-|
--6----6--6-6-6--6-6---6-x-x-|--0----0--0-0-0--0-0-L-0-x-x-|
--4----4--4-4-4--4-4-L-4-x-x-|-----------------------------|
-----------------------------|-----------------------------|


  Q    E  S S E  S S S S S S    Q    E.  S E  S S S S S S
--0----0--0-0-0--0-0-L-0-x-x-|--0----L---0-0--0-0---0-x-x-|
--0----0--0-0-0--0-0-L-0-x-x-|--0----L---0-0--0-0-L-0-x-x-|
--1----1--1-1-1--1-1-L-1-x-x-|--2----L---2-2--2-2-L-2-x-x-|
--2----2--2-2-2--2-2-L-2-x-x-|--2----L---2-2--2-2-L-2-x-x-|
--2----2--2-2-2--2-2-L-2-x-x-|--0----L---0-0--0-0-L-0-x-x-|
--0----0--0-0-0--0-0-L-0-x-x-|----------------------------|


  Q    E  S S E  S S S S S S    Q    E  S S E  S S S S S S
-----------------------------|--2----2--2-2-2--2-3-L-2-x-x-|
--6----6--6-6-6--6-6-L-6-x-x-|--3----3--3-3-3--3-3-L-3-x-x-|
--6----6--6-6-6--6-6-L-6-x-x-|--2----2--2-2-2--2-2-L-2-x-x-|
--6----6--6-6-6--6-6---6-x-x-|--0----0--0-0-0--0-0-L-0-x-x-|
--4----4--4-4-4--4-4-L-4-x-x-|-----------------------------|
-----------------------------|-----------------------------|


  Q    E  S S E  S S S S S S    Q    E.  S E  S S S S S S
--0----0--0-0-0--0-0-L-0-x-x-|--0----L---0-0--0-0---0-x-x-|
--0----0--0-0-0--0-0-L-0-x-x-|--0----L---0-0--0-0-L-0-x-x-|
--1----1--1-1-1--1-1-L-1-x-x-|--2----L---2-2--2-2-L-2-x-x-|
--2----2--2-2-2--2-2-L-2-x-x-|--2----L---2-2--2-2-L-2-x-x-|
--2----2--2-2-2--2-2-L-2-x-x-|--0----L---0-0--0-0-L-0-x-x-|
--0----0--0-0-0--0-0-L-0-x-x-|----------------------------|


  Q    E  S S E  S S S S S S    Q    E  S S E  S S S S S S
-----------------------------|--2----2--2-2-2--2-3-L-2-x-x-|
--6----6--6-6-6--6-6-L-6-x-x-|--3----3--3-3-3--3-3-L-3-x-x-|
--6----6--6-6-6--6-6-L-6-x-x-|--2----2--2-2-2--2-2-L-2-x-x-|
--6----6--6-6-6--6-6---6-x-x-|--0----0--0-0-0--0-0-L-0-x-x-|
--4----4--4-4-4--4-4-L-4-x-x-|-----------------------------|
-----------------------------|-----------------------------|


  Q    E  S S E  S S S S S S    E  E  E  S S E  S S S S S S
--0----0--0-0-0--0-0-L-0-x-x-|--0--0--0--0-0-0--0-0-L-0-x-x-|
--0----0--0-0-0--0-0-L-0-x-x-|--0--0--0--0-0-0--0-0-L-0-x-x-|
--1----1--1-1-1--1-1-L-1-x-x-|--2--2--2--2-2-2--2-2-L-2-x-x-|
--2----2--2-2-2--2-2-L-2-x-x-|--2--2--2--2-2-2--2-2-L-2-x-x-|
--2----2--2-2-2--2-2-L-2-x-x-|--0--0--0--0-0-0--0-0-L-0-x-x-|
--0----0--0-0-0--0-0-L-0-x-x-|------------------------------|


  Q    E  S S E  S S S S S S    Q    E  S S E  S S S S S S
-----------------------------|--2----2--2-2-2--2-3-L-2-x-x-|
--6----6--6-6-6--6-6-L-6-x-x-|--3----3--3-3-3--3-3-L-3-x-x-|
--6----6--6-6-6--6-6-L-6-x-x-|--2----2--2-2-2--2-2-L-2-x-x-|
--6----6--6-6-6--6-6---6-x-x-|--0----0--0-0-0--0-0-L-0-x-x-|
--4----4--4-4-4--4-4-L-4-x-x-|-----------------------------|
-----------------------------|-----------------------------|


  Q    E  S S E  S S S S S S    Q    E.  S E  S S S S S S
--0----0--0-0-0--0-0-L-0-x-x-|--0----L---0-0--0-0---0-x-x-|
--0----0--0-0-0--0-0-L-0-x-x-|--0----L---0-0--0-0-L-0-x-x-|
--1----1--1-1-1--1-1-L-1-x-x-|--2----L---2-2--2-2-L-2-x-x-|
--2----2--2-2-2--2-2-L-2-x-x-|--2----L---2-2--2-2-L-2-x-x-|
--2----2--2-2-2--2-2-L-2-x-x-|--0----L---0-0--0-0-L-0-x-x-|
--0----0--0-0-0--0-0-L-0-x-x-|----------------------------|


  Q    E  S S E  S S S S S S
-----------------------------||
--6----6--6-6-6--6-6-L-6-x-x-||
--6----6--6-6-6--6-6-L-6-x-x-||
--6----6--6-6-6--6-6---6-x-x-||
--4----4--4-4-4--4-4-L-4-x-x-||
-----------------------------||


4. My Friends

tuning 1/2 step down
Intro (let all notes ring):

    D             Fmaj7       G           C
e:----------0-------------0------------------------|
B:----------3-------------3------------------------|
G:------2-----------0-2---------------0-------020-0|
D:--0-----------0-3---------3-----0---------02---2-|
A:----------------------------2---------2-3--------|
E:-------------------------------------------------|


    D             Fmaj7       C           G
e:----------0-------------0------------------------|
B:----------3-------------3------------------------|
G:------2-----------0-2-------------0-2---------0--|   (repeat and
D:--0-----------0-3---------3---0-2----------0-----|    improvize 2x)
A:----------------------------3---------3-2--------|
E:-------------------------------------------------|

Chorus (chords only, get the rhythm from the album)

    C   Am  C   D   Am
e:---------------------|
B:--1---1---1---3---1--|
G:--0---2---0---0---2--|
D:--2---2---2---4---2--|
A:--3---0---3---5---0--|
E:---------------------|

Endpart (chords only):

    E   D   C#  C   G  F#5  F5
e:-----------------------------|
B:--7---5---4---3--------------|
G:--9---7---6---5--------------|
D:--9---7---6---5---5---4---3--|
A:--7---5---4---3---5---4---3--|
E:------------------3---2---1--|


Lyrics:

My friends are so depressed
I feel the question of your loneliness
Confide 'cause I'll be on your side
You know I will you know I will

Ex girlfriend called me up
Alone and desperate on the prison phone
They want to give her seven years
For being sad

Chorus:
I love all of you
Hurt by the cold
So hard and lonely too
When you don't know yourself

My friends are so distressed
And standing on the brink of emptiness
No words I know of to express
This emptiness

chorus

Imagine me tauhgt by tragedy
Release is peace
I heard a little girl
And what she said
Was something beautiful
To give your love
No matter what she said

On the record these Chords are played underneath  the solo to the verse rythym.

         D/F#   Fmaj7   G    C
     ----0--------0-----3----0-----------------|
     ----3--------3-----3----1-----------------|
     ----2--------2-----0----0-----------------|
     ----0--------3-----0----2-----------------|
     -------------0-----2----3-----------------|
     -------------------3----------------------|

Solo:
     --------------------------------------------------------------------|
     --------------------------------------------------------------------|
     --------------------------------------------------------------------|
     --------------------------------------------------------------------|
     --9--9--9--9--5h7--5/3--3h5--3/2--2--2--2h3/5-5-5-5-----------------|
     --------------------------------------------------------------------|

     --------------------------------------------------------------------|
     --------------------------------------------------------------------|
     --------------------------------------------------------------------|
     ---------------7h9--7/5--5--5--5--5/12------------------------------|
     --9--9--9--9--------------------------------------------------------|
     --------------------------------------------------------------------|

5. Coffee Shop
Coffee Shop by Sean G.

^ = Bend & Release
p = Pull Off
P.M. = Palm Mute

Intro:
                                    Gtr. 1: Wah-wah
e--------------------------------------------------|
B--------------------------------------------------|
G--9-9-9-9-9-9-9-9-9-9-9-9-9-9-9-9-9-9-9-9-9-9-9---|
D--------------------------------------------------|
A--------------------------------------------------|
E--------------------------------------------------|
|
|                         Gtr. 2: Slight Distrotion
e--------------------------------------------------|
B-------------------------------------Harm.--------|
G--------------------------------------12----------|
D--------------------------------------------------|
A---------------0----------------------------------|
E---------------0----------------------------------|


Verse: Distortion

      |P.M.|   |P.M.|   |P.M.|   |P.M.|   Gtr. 4: Distortion
e-----------------------------------------------------------|
B-O-----------------------------------------------------O---| (All the 0's are PM
G-----------------------------------------------------------|          0
D---2-0-0-0--2-0-0-0--2-0-0-0--2-0-0-0---5------------------|          0
A-O-2-0-0-0--2-0-0-0--2-0-0-0--2-0-0-0---5--------------O---|
E---0-0-0-0--0-0-0-0--0-0-0-0--0-0-0-0---3------------------|
|
|                                         Gtr. 3: Distortion
e-----------------0---0----------------x-15-15-15-15--------|
B-O---------------0---0----------------x-14-14-14-14----O---|
G-----------------4---3-------------------------------------|
D-----------------------------------------------------------|
A-O-----------------------------------------------------O---|
E------------------------------x/12-------------------------|

Chorus: Distortion (Gtr. 3)
                      P.M.                             |________let ring______|
e------------------------------------------------------------0--0--------------|
B--------------------------8-9-9-9\--------------------------0--0--------------|
G--------------------------6-7-7-7\--------------------------------------------|
D--7--7---5--5----2---------------------7--7---10--10----2---------------------|
A--7--7---5--5----2---------------------7--7---10--10----2---------------------|
E--5--5---3--3----0----0----------------5--5---8---8-----0---------------------|


e-----------------------------------------------------------------|
B------------------------------------------5-----2----------------|
G--6----6----4--4----3--------3----4--4----3-----3----------------|
D--7----7----5--5----4--------4----5--5----x----------10---10-----|
A--7----7----5--5----4--------4----5--5----4-----4----10---10-----|
E--5----5----3--3----2--------2----3--3----2-----2----8----8------|


e--------------------------------------------------|
B--------------------------------------------------|
G--------------------------------------------------|
D--7--(7)/9---9/11--11/12--12--14------------------|
A-----(-)------------------------------------------|
E--5--(5)/7---7/9---9/-10--10--12------------------|

Chorus: Distrotion (Gtr. 4)


e------------------------------------------------------------------------------|
B------------------------------------------------------------------------------|
G------------------------------------------------------------------------------|
D--7------5-----2------------------------7-----10------2-----------------------|
A--7------5-----2------------------------7-----10------2-----------------------|
E--5------3-----0------------------------5------8------0-----------------------|


e--------------------------------------------------------------|
B--------------------------------------------------------------|
G----6-------4------3--------3-----4---------------------------|
D----7-------5------4--------4-----5----------------10---7-----|
A----7-------5------4--------4-----5----------------10---7-----|
E----5-------3------2--------2-----3----------------8----5-----|


-Verse
-Chorus

Bridge: Slight Distortion & Delay (Gtr. 5)


e----------------------x15-15-----------------------|
B-O--12---------12-----x15-15--12---------12-----O--|
G----12---------12-------------12---------12--------|
D----12---------12-------------12---------12--------|
A-O----------------------------------------------O--|
E---------------------------------------------------|


Interlude 1: Wah-wah (Gtr. 1)


e---------------------------------------------------------------------|
B---------------------------------------------------------------------|
G-----9---7--x--6--7-------------------------------------7-------12---|
D---------------------x--x--5---x--x--7^(7)--5------7/9----9/11-------|
A--7---------------------------------------------7--------------------|
E---------------------------------------------------------------------|

e-----------------------------------------------------------|
B-----------------------------------------------------------|
G-----9---7--x--6--7------------------------7--x-6----------|
D----------------------------------------6----------7p5p0---|
A--7------------------x--x--3--x--x--5----------------------|
E-----------------------------------------------------------|

e-----------------------------------------------------|
B-----------------------12----------------------------|
G-----9---7--x--6--7----12------12/12-----------------|
D-------------------------------11/13-------7\6\7-----|
A--7--------------------------------------------------|
E----------------------------0----------0---9\8\9-----|

e-----------------------------------------------------------------------|
B-----------------------------------------------------------------------|
G-----9---7--x--6--7----------12--x--x--12---x--x-11---x--x--12--12-----|
D-----------------------------12--x--x--12---x--x-11---x--x--12--12-----|
A--7------------------x--10---10--x--x--10---x--x-9----x--x--10--10-----|
E-----------------------------------------------------------------------|

Interlude 2: Wah-wah (Gtr. 1)

e--------------------------------------------------4/5--------|
B-------------------------------------------------------------|
G--13--13-13-13-13-13-13-13-13-13-13-13-13-13-13--------------|
D--------------------------------------------------6/7--------|
A--11--11-11-11-11-11-11-11-11-11-11-11-11-11-11--------------|
E-------------------------------------------------------------|

e--5-5-5-5-5-5-5-5-5-5-5-5-5-5--5/7--7-7-7-7-7-7-7-7-7-7-7-7-7-7----|
B--0-0-0-0-0-0-0-0-0-0-0-0-0-0--0----0-0-0-0-0-0-0-0-0-0-0-0-0-0----|
G--9-9-9-9-9-9-9-9-9-9-9-9-9-9--9----9-9-9-9-9-9-9-9-9-9-9-9-9-9----|
D--7-7-7-7-7-7-7-7-7-7-7-7-7-7--7/9--9-9-9-9-9-9-9-9-9-9-9-9-9-9----|
A-------------------------------------------------------------------|
E-------------------------------------------------------------------|

e--7/10--10-10-10-10-10-10-10-10-10-10-10-10-10-10------|
B--0-----0--0--0--0--0--0--0--0--0--0--0--0--0--0-------|
G--9-----9--9--9--9--9--9--9--9--9--9--9--9--9--9-------|
D--9/12--12-12-12-12-12-12-12-12-12-12-12-12-12-12------|
A-------------------------------------------------------|
E-------------------------------------------------------|

-During the Interlude 1, Gtr. 6 plays this in Wah-wah:


                                       |_1,2,3____________________||_4__|
e---12-12-12-12-12----12-12----12--12---12-12-12-12-12-12--12---12---12\----|
B-O-----------------------------------------------------------------------O-|
G---9--9--9--9--9-----9--9-----9---9----9--9--9--9--9--9---9----9----9-\----|
D---------------------------------------------------------------------------|
A-O-----------------------------------------------------------------------O-|
E---------------------------------------------------------------------------|


-Chorus

Outro:

   |P.M.|   |P.M.|   |P.M.|   |P.M.|      Gtr. 4: Distortion
e-----------------------------------------------------------|
B-O-----------------------------------------------------O---|
G-----------------------------------------------------------|
D---2-0-0-0--2-0-0-0--2-0-0-0--2-0-0-0---5------------------|
A-O-2-0-0-0--2-0-0-0--2-0-0-0--2-0-0-0---5--------------O---|
E---0-0-0-0--0-0-0-0--0-0-0-0--0-0-0-0---3------------------|
|
|  let ring with feedback 'till the end       Gtr. 3: Distortion
e---15-----------------15------------------15---------15---------|
B--------------------------14-----------------------------14-----|
G-------14-----------------------------------14------------------|
D----------------------------------------------------------------|
A----------------------------------------------------------------|
E----------------------------------------------------------------|

Guitars:

Gtr. 1 - Wah-wah
Gtr. 2 - Slight Distortion
Gtr. 3 - Distortion
Gtr. 4 - Distrotion
Gtr. 5 - Slight Distortion & Delay
Gtr. 6 - Wah - wah


6. Pea

Bassist: Michael Balzary (a.k.a. Flea)
Tabber: Emil Gasanov (strat182@hotmail.com)


G|-------------|---------------|---------------|-------------|
D|-3--x-3-3--3-|---------------|---------------|-------------|
A|-------------|-4--x-4-4--x-4-|-3--x-3-3--x-3-|-1--1-1--x-1-|
E|-------------|---------------|---------------|-------------|

G|---------------|-------------|---------------|---------------|
D|-3--x-3-3--x-3-|-------------|---------------|---------------|
A|---------------|-4--x-4-4--4-|-3--x-3-3-x--3-|-1--x-1-1--x-1-|
E|---------------|-------------|---------------|---------------|

G|---------------|-------------|-------------|---------------|
D|-3--x-3-3--x-3-|-------------|-------------|---------------|
A|---------------|-4--x-4-4--4-|-3--x-3-3--3-|-1--x-1-1--x-1-|
E|---------------|-------------|-------------|---------------|

G|---------------|-------------|-------------|---------------|
D|-3--x-3-3--x-3-|-------------|-------------|---------------|
A|---------------|-4--x-4-4--4-|-3--x-3-3--3-|-1-x--1-1--x-1-|
E|---------------|-------------|-------------|---------------|

G|-----------------|-3--x-3-3--x-3-|---------------|------------------------|
D|-3/5--x-5-5--x-5-|---------------|-3--x-3-3--x-3-|-3-3--x-3--x-3--x---3-4-|
A|-----------------|---------------|---------------|------------------5-----|
E|-----------------|---------------|---------------|------------------------|

G|---------------|-3--3-3--x-3-|---------------|--------------|
D|-5--x-5-5--x-5-|-------------|-3--x-3-3--x-3-|-3-3--3--3--3-|
A|---------------|-------------|---------------|--------------|
E|---------------|-------------|---------------|--------------|

G|-------------|------------|-------------|------------|
D|-2--x-2-2--2-|----------3-|-2--x-2-2--2-|------------|
A|-------------|-3--x-3-5---|-------------|-3--x-3-5---|
E|-------------|------------|-------------|----------5-|

G|---------------|------------|---------------|----------------|
D|-2--x-2-2--x-2-|----------3-|-2--x-2-2--x-2-|-0--x-0-3-3-x-2-|
A|---------------|-3----3-5---|---------------|----------------|
E|---------------|------------|---------------|----------------|

G|---------------|----------------|----------------|-----------------|
D|-2-2--2-2-2--2-|-0--x-0-3-3-x-2-|--2-2-2-2-2-2-2-|-0-0-0-0-3-3-3-2-|
A|---------------|----------------|----------------|-----------------|
E|---------------|----------------|----------------|-----------------|

G|----------------|-----------------|--------|
D|--2-2-2-2-2-2-2-|-0-0-0-0-3-3-3-2-|--------|
A|----------------|-----------------|--------|
E|----------------|-----------------|--0-0-0-|

7. One Big Mob


Gtr.1 (dist.)

                     pick scrape
     H        Q      Q            E  S S S S E  S S  S  S  S  E.
E||----------------------------|--------------------14-14-14-14---|
B||----------------------------|----------------x---14-14-14-14---|
G||----------------------------|----------------------------------|
D||----------------------------|--4--x-2-L-x-4--------------------|
A||----------------------------|--4--x-2-L-x-4--------------------|
E||----------------xgx---------|--2--x-0-L-x-2--------------------|


                      NH
  E  S S S S E  S S   Q    S S    E  S S S S E  S S  S  S  S  E.
-------------------------------|--------------------14-14-14-14---|
-------------------------------|----------------x---14-14-14-14---|
--------------------<>5--------|----------------------------------|
--4--x-2-L-x-4--x-x--------x-x-|--4--x-2-L-x-4--------------------|
--4--x-2-L-x-4--x-x--------x-x-|--4--x-2-L-x-4--------------------|
--2--x-0-L-x-2--x-x--------x-x-|--2--x-0-L-x-2--------------------|


  E  S S S S E  S S   E   Q       E  S S S S E  S S  S  S  S  E.
-------------------------------|--------------------14-14-14-14---|
-------------------------------|----------------x---14-14-14-14---|
--------------------<>4b--L----|----------------------------------|
--4--x-2-L-x-4--x-x------------|--4--x-2-L-x-4--------------------|
--4--x-2-L-x-4--x-x------------|--4--x-2-L-x-4--------------------|
--2--x-0-L-x-2--x-x------------|--2--x-0-L-x-2--------------------|


                    NH  NH  NH  NH  NH  NH  NH
  E  S S S S E  S   S   S   S   S   S   S   S
----------------------------------------------|
----------------------------------------------|
------------------<>5-<>5-<>5-<>5-<>5-<>5-<>5-|
--4--x-2-L-x-4--x-----------------------------|
--4--x-2-L-x-4--x-----------------------------|
--2--x-0-L-x-2--x-----------------------------|


                                                       NH      NH
  E  S S S S E  S S  S  S  S  E.     E  S S S S E  S   E.  S   E.
--------------------14-14-14-14---|--------------------------------|
----------------x---14-14-14-14---|--------------------------------|
----------------x---14-14-14-14---|------------------<>5-----------|
--4--x-2-L-x-4--------------------|--4--x-2-L-x-4------------<>5---|
--4--x-2-L-x-4--------------------|--4--x-2-L-x-4------------------|
--2--x-0-L-x-2--------------------|--2--x-0-L-x-2------------------|


                                                     slight P.M
  E  S S S S E  S S  S  S  S  E.     E  S S S S E  S S          S S S S S S
--------------------14-14-14-14---|-----------------------------------------|
----------------x---14-14-14-14---|------------------3----------3-3-3-3-----|
----------------x---14-14-14-14---|-------------------------------------2-2-|
--4--x-2-L-x-4--------------------|--4--x-2-L-x-4---------------------------|
--4--x-2-L-x-4--------------------|--4--x-2-L-x-4---------------------------|
--2--x-0-L-x-2--------------------|--2--x-0-L-x-2---------------------------|


  E  S S S S E  S S  S  S  S  E.     E.  S E  E  S E.  Q
--------------------14-14-14-14---|-------------------------|
----------------x---14-14-14-14---|-------------------------|
----------------------------------|--9---8-L--9--L-8---6----|
--4--x-2-L-x-4--------------------|--9---8-L--9--L-8---6----|
--4--x-2-L-x-4--------------------|--7---6-L--7--L-6---4----|
--2--x-0-L-x-2--------------------|-------------------------|


  w/ wah-wah
  E          E  Q     S E  S S E.      E  E  Q     S E  S S E  S
------------------------------------|----------------------------|
------------------------------------|----------------------------|
------------------------------------|----------------------------|
----------------4~----4-2--3-L-4~---|--------4~----4-------------|
------------------------------------|----------------0--2-L-3--4-|
--0----------2----------------------|--0--2----------------------|


  E  E  Q     S E  S S E  S    E  E  Q     S E  S S E.
----------------------------|---------------------------|
----------------------------|---------------------------|
----------------------------|---------------------------|
--------4~----4-2--3-L-4--4-|--------4~----4------------|
----------------------------|----------------0--2-L-4---|
--0--2----------------------|--0--2---------------------|


  H          Q     Q       E  E  Q     S E  S S E  S
------------------------|----------------------------|
------------------------|----------------------------|
--4--------4g6----------|----------------------------|
------------------11----|--------4~----4-2--3-L-4--4-|
--2--------2g4----------|----------------------------|
-------------------9----|--0--2----------------------|


  E  E  Q     S E  S S E  S    E  E  Q     S E  S S E.
----------------------------|---------------------------|
----------------------------|---------------------------|
----------------------------|---------------------------|
--------4~----4-------------|--------4~----4-2--3-L-4---|
----------------0--2-L-3--4-|---------------------------|
--0--2----------------------|--0--2---------------------|


  E  E  Q     S E  S S E.     H          Q     Q
---------------------------|------------------------|
---------------------------|------------------------|
---------------------------|--4--------4g6----------|
--------4~----4------------|------------------11----|
----------------0--2-L-4---|--2--------2g4----------|
--0--2---------------------|-------------------9----|


  E  E  Q     S E  S S S  E     E  E  Q     S E  S S E  S
-----------------------------|----------------------------|
-----------------------------|----------------------------|
-----------------------4b-L--|----------------------------|
--------4~----4-2--3-L-------|--------4~----4-------------|
-----------------------------|----------------0--2-L-3--4-|
--0--2-----------------------|--0--2----------------------|


                                                                          End
  E  E  Q     S E  S S E.     E  E  Q     S E  S S E.     H          Q    Q
---------------------------|---------------------------|-----------------------|
---------------------------|---------------------------|-----------------------|
---------------------------|---------------------------|--4--------4g6----6----|
--------4~----4-2--3-L-4---|--------4~----4------------|-----------------------|
---------------------------|----------------0--2-L-4---|--2--------2g4----4----|
--0--2---------------------|--0--2---------------------|-----------------------|


  E  E  Q     S E  S S E.     E  E  Q     S E  S S E  S
---------------------------|----------------------------|
---------------------------|----------------------------|
---------------------------|----------------------------|
--------4~----4-2--3-L-4---|--------4~----4-------------|
---------------------------|----------------0--2-L-3--4-|
--0--2---------------------|--0--2----------------------|


  E  E  Q     S E  S S E.     E  E  Q     S E  S S E.     H          Q    Q
---------------------------|---------------------------|-----------------------|
---------------------------|---------------------------|-----------------------|
---------------------------|---------------------------|--4--------4g6----6----|
--------4~----4-2--3-L-4---|--------4~----4------------|-----------------------|
---------------------------|----------------0--2-L-4---|--2--------2g4----4----|
--0--2---------------------|--0--2---------------------|-----------------------|


  w/ slight dist. & delay
  H.                      E  E     W                Q       H.
--------------------------x--7--|--L----------------L----|--L------------|
--------------------------x--7--|--L----------------L----|--L------------|
--------------------------x--7--|--L----------------L----|--L------------|
--------------------------------|------------------------|---------------|
--------------------------------|------------------------|---------------|
--7-----------------------------|------------------------|---------------|


  W                   H.           E  E
-------------------|---------------x--7--|
-------------------|---------------x--7--|
-------------------|---------------x--7--|
-------------------|---------------------|
-------------------|---------------------|
-------------------|--7------------------|


                   w/ digitech Whammy pedal
  H        Q.      E                       Q       E  E  Q    Q
--L--------L------(7)b---------------------L----|--L--L------------|
--L--------L------------------------------------|------------------|
--L--------L------------------------------------|------------------|
------------------------------------------------|------------------|
------------------------------------------------|------------------|
------------------------------------------------|------------------|


  W                     H.           E  E
-------------------|-----------------x--7--|
-------------------|-----------------x--7--|
-------------------|-----------------x--7--|
-------------------|--7g9------------------|
-------------------|-----------------------|
-------------------|--5g7------------------|


        slide down        delay off
  Q     Q         Q    E  E         E  E     H        E  E
--L----(7)--------------------------------|-----------------|
--L----(7)--------------------------------|-----------------|
--L----(7)--------------------------------|-----------------|
---------------------------------------7--|--6-----------7--|
--------------------------7---------9-----|--7-----------5--|
------------------------------------------|-----------------|


                        w/ delay
  W                     H.           E  E
-------------------|-----------------x--7--|
-------------------|-----------------x--7--|
-------------------|-----------------x--7--|
--L----------------|--7g9------------------|
--L----------------|-----------------------|
-------------------|--5g7------------------|


                      delay off
  Q     Q     Q    E  E         E  E     H        E  E     W
--L----(7)----------------------------|-----------------|-------------------|
--L----(7)----------------------------|-----------------|-------------------|
--L----(7)----------------------------|-----------------|-------------------|
-----------------------------------7--|--6-----------7--|--L----------------|
----------------------7---------9-----|--7-----------5--|--L----------------|
--------------------------------------|-----------------|-------------------|


    w/ delay                                  delay off
    H.           E  E     Q     Q     Q    E  E         E  E
-----------------x--7--|--L----(7)----------------------------|
-----------------x--7--|--L----(7)----------------------------|
-----------------x--7--|--L----(7)----------------------------|
--7g9------------------|-----------------------------------7--|
-----------------------|----------------------7---------9-----|
--5g7------------------|--------------------------------------|


                                          w/ delay
  H        E  E     W                     H.           E  E
-----------------|-------------------|-----------------x--7--|
-----------------|-------------------|-----------------x--7--|
-----------------|-------------------|-----------------x--7--|
--6-----------7--|--L----------------|--7g9------------------|
--7-----------5--|--L----------------|-----------------------|
-----------------|-------------------|--5g7------------------|


                      delay off
  Q     Q     Q    E  E         E  E     H        E  E     W
--L----(7)----------------------------|-----------------|-------------------|
--L----(7)----------------------------|-----------------|-------------------|
--L----(7)----------------------------|-----------------|-------------------|
-----------------------------------7--|--6-----------7--|--L----------------|
----------------------7---------9-----|--7-----------5--|--L----------------|
--------------------------------------|-----------------|-------------------|


    w/ delay                                  delay off
    H.           E  E     Q     Q     Q    E  E         E  E
-----------------x--7--|--L----(7)----------------------------|
-----------------x--7--|--L----(7)----------------------------|
-----------------x--7--|--L----(7)----------------------------|
--7g9------------------|-----------------------------------7--|
-----------------------|----------------------7---------9-----|
--5g7------------------|--------------------------------------|


                                          w/ delay
  H        E  E     W                     H.           E  E
-----------------|-------------------|-----------------x--7--|
-----------------|-------------------|-----------------x--7--|
-----------------|-------------------|-----------------x--7--|
--6-----------7--|--L----------------|--7g9------------------|
--7-----------5--|--L----------------|-----------------------|
-----------------|-------------------|--5g7------------------|


                      delay off
  Q     Q     Q    E  E         E  E     H        E  E     W
--L----(7)----------------------------|-----------------|-------------------|
--L----(7)----------------------------|-----------------|-------------------|
--L----(7)----------------------------|-----------------|-------------------|
-----------------------------------7--|--6-----------7--|--L----------------|
----------------------7---------9-----|--7-----------5--|--L----------------|
--------------------------------------|-----------------|-------------------|


    w/ delay                                  delay off
    H.           E  E     Q     Q     Q    E  E         E  E
-----------------x--7--|--L----(7)----------------------------|
-----------------x--7--|--L----(7)----------------------------|
-----------------x--7--|--L----(7)----------------------------|
--7g9------------------|-----------------------------------7--|
-----------------------|----------------------7---------9-----|
--5g7------------------|--------------------------------------|


                                          w/ delay
  H        E  E     W                     H.           E  E
-----------------|-------------------|-----------------x--7--|
-----------------|-------------------|-----------------x--7--|
-----------------|-------------------|-----------------x--7--|
--6-----------7--|--L----------------|--7g9------------------|
--7-----------5--|--L----------------|-----------------------|
-----------------|-------------------|--5g7------------------|


                      delay off
  Q     Q     Q    E  E         E  E     H        E  E     W
--L----(7)----------------------------|-----------------|-------------------|
--L----(7)----------------------------|-----------------|-------------------|
--L----(7)----------------------------|-----------------|-------------------|
-----------------------------------7--|--6-----------7--|--L----------------|
----------------------7---------9-----|--7-----------5--|--L----------------|
--------------------------------------|-----------------|-------------------|


    w/ delay                                  delay off
    H.           E  E     Q     Q     Q    E  E         E  E
-----------------x--7--|--L----(7)----------------------------|
-----------------x--7--|--L----(7)----------------------------|
-----------------x--7--|--L----(7)----------------------------|
--7g9------------------|-----------------------------------7--|
-----------------------|----------------------7---------9-----|
--5g7------------------|--------------------------------------|


                                          w/ delay
  H        E  E     W                     H.           E  E
-----------------|-------------------|-----------------x--7--|
-----------------|-------------------|-----------------x--7--|
-----------------|-------------------|-----------------x--7--|
--6-----------7--|--L----------------|--7g9------------------|
--7-----------5--|--L----------------|-----------------------|
-----------------|-------------------|--5g7------------------|


                      delay off
  Q     Q     Q    E  E         E  E     H        E  E     W
--L----(7)----------------------------|-----------------|-------------------|
--L----(7)----------------------------|-----------------|-------------------|
--L----(7)----------------------------|-----------------|-------------------|
-----------------------------------7--|--6-----------7--|--L----------------|
----------------------7---------9-----|--7-----------5--|--L----------------|
--------------------------------------|-----------------|-------------------|


    w/ delay                                  delay off
    H.           E  E     Q     Q     Q    E  E         E  E
-----------------x--7--|--L----(7)----------------------------|
-----------------x--7--|--L----(7)----------------------------|
-----------------x--7--|--L----(7)----------------------------|
--7g9------------------|-----------------------------------7--|
-----------------------|----------------------7---------9-----|
--5g7------------------|--------------------------------------|


                                          w/ delay
  H        E  E     W                     H.           E  E
-----------------|-------------------|-----------------x--7--|
-----------------|-------------------|-----------------x--7--|
-----------------|-------------------|-----------------x--7--|
--6-----------7--|--L----------------|--7g9------------------|
--7-----------5--|--L----------------|-----------------------|
-----------------|-------------------|--5g7------------------|


                      delay off
  Q     Q     Q    E  E         E  E     H        E  E     W
--L----(7)----------------------------|-----------------|-------------------|
--L----(7)----------------------------|-----------------|-------------------|
--L----(7)----------------------------|-----------------|-------------------|
-----------------------------------7--|--6-----------7--|--L----------------|
----------------------7---------9-----|--7-----------5--|--L----------------|
--------------------------------------|-----------------|-------------------|


  H        Q.     E     H        Q.     E   E  E     H        E  E
---------------------|----------------------------|-----------------|
---------------------|----------------------------|-----------------|
---------------------|----------------------------|-----------------|
------------------9--|--L--------L-------------7--|--6-----------7--|
------------------9--|--L--------L------7h--9-----|--7-----------5--|
--7--------L---------|----------------------------|-----------------|


  W                   H        Q.     E     H        Q.     E   E  E
-------------------|---------------------|----------------------------|
-------------------|---------------------|----------------------------|
-------------------|---------------------|----------------------------|
--L----------------|------------------9--|--L--------L-------------7--|
--L----------------|------------------9--|--L--------L------7h--9-----|
-------------------|--7--------L---------|----------------------------|


  H        E  E     W                     H        Q.     E
-----------------|-------------------||----------------------|
-----------------|-------------------||----------------------|
-----------------|-------------------||*---------------------|
--6-----------7--|--L----------------||*------------------9--|
--7-----------5--|--L----------------||-------------------9--|
-----------------|-------------------||---7--------L---------|


  H        Q.     E   E  E     H        E  E     W                 3x
----------------------------|-----------------|--------------------||
----------------------------|-----------------|--------------------||
----------------------------|-----------------|-------------------*||
--L--------L-------------7--|--6-----------7--|--L----------------*||
--L--------L------7h--9-----|--7-----------5--|--L-----------------||
----------------------------|-----------------|--------------------||


  H.           E  E     Q.     E  E  E  E  E   E  E     Q    E  E  E  E
---------------------|-------------------------------|-------------------|
---------------------|-------------------------------|-------------------|
---------------------|-------------------------------|-------------------|
---------------9--9--|--L-------------------------7--|--6----6--6--6--7--|
---------------9--9--|--L------9--9--9--9--7h--9-----|--7----7--7--7--5--|
--7------------------|---------7--7--7--7------------|-------------------|


  E  E  E  E  E  E  E  E     E  E  E  E  E  E  E  E
--------------------------|--------------------------|
--------------------------|--------------------------|
--------------------------|--------------------------|
--L--7--7--7--7--7--7--7--|--9--9--9--9--9--9--9--9--|
--L--5--5--5--5--5--5--5--|--9--9--9--9--9--9--9--9--|
--------------------------|--7--7--7--7--7--7--7--7--|


                                   w/ wah-wah
  E  E  E  E  E  E  E  E     E  E  E          E  E  E  E  E
--------------------------|--------7----------7--7--7--7--7--|
--------------------------|--------7----------7--7--7--7--7--|
--------7--7--7--7--7--7--|--7--7----------------------------|
--9--9--7--7--7--7--7--7--|--7--7----------------------------|
--9--9--------------------|----------------------------------|
--7--7--------------------|----------------------------------|


  E  E  E  E  E  E  E  E     E  E  E  E  E  E  E  E
--7--7--7--7--7--7--7--7--|--7--7--7--7--7--7--7--7--|
--7--7--7--7--7--7--7--7--|--7--7--7--7--7--7--7--7--|
--------------------------|--------------------------|
--------------------------|--------------------------|
--------------------------|--------------------------|
--------------------------|--------------------------|


  T T T T T T T T  T  T  T  T  T  T  T  T  T  T  T  T  T  T  T  T  T  T T T T T
--7-7-7-7-8-8-9-9-10-10-11-11-12-12-13-13-14-15-16-16-15-14-13-12-11-10-9-8-7-6-|
--7-7-7-7-8-8-9-9-10-10-11-11-12-12-13-13-14-15-16-16-15-14-13-12-11-10-9-8-7-6-|
--------------------------------------------------------------------------------|
--------------------------------------------------------------------------------|
--------------------------------------------------------------------------------|
--------------------------------------------------------------------------------|


  E  S S S S E  S S  S  S  S  E.
--------------------14-14-14-14---|
----------------x---14-14-14-14---|
----------------x---14-14-14-14---|
--4--x-2-L-x-4--------------------|
--4--x-2-L-x-4--------------------|
--2--x-0-L-x-2--------------------|


                    NH  NH  NH  NH  NH  NH  NH
  E  S S S S E  S   S   S   S   S   S   S   S
----------------------------------------------|
----------------------------------------------|
------------------<>5-<>5-<>5-<>5-<>5-<>5-<>5-|
--4--x-2-L-x-4--x-----------------------------|
--4--x-2-L-x-4--x-----------------------------|
--2--x-0-L-x-2--x-----------------------------|


  E  S S S S E  S S  S  S  S  E.     E  S S S S E  E    S  S Q
--------------------14-14-14-14---|-------------------------------|
----------------x---14-14-14-14---|-------------------------------|
----------------x---14-14-14-14---|-------------------<>4b-L-L----|
--4--x-2-L-x-4--------------------|--4--x-2-L-x-4-----------------|
--4--x-2-L-x-4--------------------|--4--x-2-L-x-4-----------------|
--2--x-0-L-x-2--------------------|--2--x-0-L-x-2-----------------|


  E  S S S S E  S S  S  S  S  E.
--------------------14-14-14-14---|
----------------x---14-14-14-14---|
----------------x---14-14-14-14---|
--4--x-2-L-x-4--------------------|
--4--x-2-L-x-4--------------------|
--2--x-0-L-x-2--------------------|


                    NH  NH  NH  NH  NH  NH  NH
  E  S S S S E  S   S   S   S   S   S   S   S
----------------------------------------------|
----------------------------------------------|
------------------<>5-<>5-<>5-<>5-<>5-<>5-<>5-|
--4--x-2-L-x-4--x-----------------------------|
--4--x-2-L-x-4--x-----------------------------|
--2--x-0-L-x-2--x-----------------------------|


                                                          \2/
  E  S S S S E  S S  S  S  S  E.     E  S S S S E  E  E   S  S E
--------------------14-14-14-14---|-------------------------------|
----------------x---14-14-14-14---|-------------------------------|
----------------x---14-14-14-14---|-------------------0--(0)-L-L--|
--4--x-2-L-x-4--------------------|--4--x-2-L-x-4-----------------|
--4--x-2-L-x-4--------------------|--4--x-2-L-x-4-----------------|
--2--x-0-L-x-2--------------------|--2--x-0-L-x-2-----------------|


  E  S S S S E  S S  S  S  S  E.
--------------------14-14-14-14---|
----------------x---14-14-14-14---|
----------------x---14-14-14-14---|
--4--x-2-L-x-4--------------------|
--4--x-2-L-x-4--------------------|
--2--x-0-L-x-2--------------------|


                    NH  NH  NH  NH  NH  NH  NH
  E  S S S S E  S   S   S   S   S   S   S   S
----------------------------------------------|
----------------------------------------------|
------------------<>5-<>5-<>5-<>5-<>5-<>5-<>5-|
--4--x-2-L-x-4--x-----------------------------|
--4--x-2-L-x-4--x-----------------------------|
--2--x-0-L-x-2--x-----------------------------|


  E  S S S S E  E   S  S  S  S  E     E.  S E  E  S E.  Q
-------------------------14-14-14--|-------------------------|
----------------x--------14-14-14--|-------------------------|
----------------x--11-14-14-14-14--|--9---8-L--9--L-8---6----|
--4--x-2-L-x-4-----11-14-----------|--9---8-L--9--L-8---6----|
--4--x-2-L-x-4---------------------|--7---6-L--7--L-6---4----|
--2--x-0-L-x-2---------------------|-------------------------|


  w/ wah-wah
  E          E  Q     S E  S S E.      E  E  Q     S E  S S E  S
------------------------------------|----------------------------|
------------------------------------|----------------------------|
------------------------------------|----------------------------|
----------------4~----4-2--3-L-4~---|--------4~----4-------------|
------------------------------------|----------------0--2-L-3--4-|
--0----------2----------------------|--0--2----------------------|


  E  E  Q     S E  S S E  S    E  E  Q     S E  S S E.
----------------------------|---------------------------|
----------------------------|---------------------------|
----------------------------|---------------------------|
--------4~----4-2--3-L-4--4-|--------4~----4------------|
----------------------------|----------------0--2-L-4---|
--0--2----------------------|--0--2---------------------|


  H          Q     Q       E  E  Q     S E  S S E  S
------------------------|----------------------------|
------------------------|----------------------------|
--4--------4g6----------|----------------------------|
------------------11----|--------4~----4-2--3-L-4--4-|
--2--------2g4----------|----------------------------|
-------------------9----|--0--2----------------------|


  E  E  Q     S E  S S E  S    E  E  Q     S E  S S E.
----------------------------|---------------------------|
----------------------------|---------------------------|
----------------------------|---------------------------|
--------4~----4-------------|--------4~----4-2--3-L-4---|
----------------0--2-L-3--4-|---------------------------|
--0--2----------------------|--0--2---------------------|


  E  E  Q     S E  S S E.     H          Q     Q
---------------------------|------------------------|
---------------------------|------------------------|
---------------------------|--4--------4g6----------|
--------4~----4------------|------------------11----|
----------------0--2-L-4---|--2--------2g4----------|
--0--2---------------------|-------------------9----|


  E  E  Q     S E  S S S  E     E  E  Q     S E  S S E  S
-----------------------------|----------------------------|
-----------------------------|----------------------------|
-----------------------4b-L--|----------------------------|
--------4~----4-2--3-L-------|--------4~----4-------------|
-----------------------------|----------------0--2-L-3--4-|
--0--2-----------------------|--0--2----------------------|


  E  E  Q     S E  S S E.     E  E  Q     S E  S S E.     H          Q    Q
---------------------------|---------------------------|-----------------------|
---------------------------|---------------------------|-----------------------|
---------------------------|---------------------------|--4--------4g6----6----|
--------4~----4-2--3-L-4---|--------4~----4------------|-----------------------|
---------------------------|----------------0--2-L-4---|--2--------2g4----4----|
--0--2---------------------|--0--2---------------------|-----------------------|


  E  E  Q     S E  S S E.     E  E  Q     S E  S S E  S
---------------------------|----------------------------|
---------------------------|----------------------------|
---------------------------|----------------------------|
--------4~----4-2--3-L-4---|--------4~----4-------------|
---------------------------|----------------0--2-L-3--4-|
--0--2---------------------|--0--2----------------------|


  E  E  Q     S E  S S E.     E  E  Q     S E  S S E.     W
---------------------------|---------------------------|-------------------|
---------------------------|---------------------------|-------------------|
---------------------------|---------------------------|-------------------|
--------4~----4-2--3-L-4---|--------4~----4------------|-------------------|
---------------------------|----------------0--2-L-4---|-------------------|
--0--2---------------------|--0--2---------------------|-------------------|


                                             w/ wah-wah
  E  E  Q    H           W                   H          H
----------------------|-------------------|----------------------|
----------------------|-------------------|----------------------|
----------------------|-------------------|----------------------|
----------------------|-------------------|--2b---------L--------|
----------------------|-------------------|----------------------|
--0-------------------|-------------------|----------------------|


  w/ bar                -7,5
             NH \2/ \4/
             |---3--|
  H          E  E   E   E    E
--------------------------------|
--------------------------------|
-----------<>2--L---L---L-------|
--L-----------------------------|
--------------------------------|
--------------------------------|


   S   S    S    S    S   S  E    S  S    S    S   S  S   S   S
--12--12---12---12---12----------12-12---12---12-----12--12-----|
--15b-15pb-15pb-15pb-15pb---15b---L-15pb-15pb-15pb---15b-15pb---|
----------------------------------------------------------------|
----------------------------------------------------------------|
----------------------------------------------------------------|
----------------------------------------------------------------|


   S   S    S    S    S    S    E    S    S    S    S   Q
--12--12---12---12---12---12---12---12---12---12---12--------|
--15b-15pb-15pb-15pb-15pb-15pb-15b--15pb-15pb-15pb-15pb------|
-------------------------------------------------------------|
-------------------------------------------------------------|
-------------------------------------------------------------|
-------------------------------------------------------------|


   H         E   E   Q         Q      E    E     Q    Q
--15b--------L---L--15b----|-------------------------------|
---------------------------|--15b----15b--15pb~--L---------|
---------------------------|-------------------------------|
---------------------------|-------------------------------|
---------------------------|-------------------------------|
---------------------------|-------------------------------|


                    |---3--|          |---3---|         |---3--|
   E    S  S  S  S  S  S   S   S  S   S   S   S  S  S   S   S  S
-----------------------------------------------------------------|
-------12-------12----12h-15p-12-----12h-15p-12----12h-15p-12----|
--14b-----14b-L----14------------14b------------14------------14-|
-----------------------------------------------------------------|
-----------------------------------------------------------------|
-----------------------------------------------------------------|


          |---3--|         |---3--|
   S  S   S   S  S  S  S   S   S  S E  S  S   S   S   S  S
-----------------------------------------------------------|
-----12h-15p-12-------12h-15p-12---------------------------|
--14------------14-14------------14-0--0-------------------|
-----------------------------------------------------------|
-----------------------------------------10h-12p-10h-12-12-|
-----------------------------------------------------------|


                                         wah off
   Q.       E    H             Q.        E      H
---------------------------|-----------------------------|
---------------------------|-----------------------------|
--14b------14b---L~--------|--14b~------14pb~---L--------|
---------------------------|-----------------------------|
---------------------------|-----------------------------|
---------------------------|-----------------------------|


    S E  S S S S S S E  S Q       S E  S S S S S S E  S Q    Q
|------------------------------|-----------------------------------||
|------------------------------|-----------------------------------||
|*-----------------------------|----------------------------------*||
|*------------------------5----|----------------------------------*||
|---7----------7----------5----|--7----------7----------5----6-----||
|-----0--0-L-0---0-L-0--0------|----0--0-L-0---0-L-0--0-5----6-----||


  S E  S S S S S S E  S Q       S E  S S S S S S E  S Q    Q
-----------------------------|----------------------------------|
-----------------------------|----------------------------------|
-----------------------------|----------------------------------|
------------------------5----|----------------------------------|
--7----------7----------5----|--7----------7----------5----6----|
----0--0-L-0---0-L-0--0------|----0--0-L-0---0-L-0--0-5----6----|


  S E  S S S S S S E  S Q
------------------------------|
------------------------------|
------------------------------|
------------------------5~----|
--7----------7----------------|
----0--0-L-0---0-L-0--0-------|


               Segue to "Walkabout"
  S E  S S S S S                    S E  S Q    Q
-----------------------------------------------------||
-----------------------------------------------------||
-----------------------------------------------------||
-----------------------------------------------------||
--7----------7-----------------------------5----6----||
----0--0-L-0---0--------------------L-0--0-5----6----||

8. Walkabout


Submitted By: Frank Verwijs
Email: l.verwijs@gironet.nl

intro:

------------------------------------------------------------------|
------------------------------------------------------------------|
-9--7----------------9--7-----------------9--7--------------------|
------5--7b(8)r7-5-------5--7b(8)r7p5-0--------5--7b(9)r7-5-------|
------------------0-----------------------------------------0-----|
------------------------------------------------------------------|

--------------------------- --------------------------------------|
--------------------------- --------------------------------------|
--------------------------- --------------------------------------|
--------------------------- ----5--7--7b(8)r7-5-7/9---------------|
-0--3--5-5b(6)r5-3-/7------ --7-----------------------------------|
--------------------------- --------------------------------------|

---------------------------------------|
---------------------------------------|
-9--7----------------------------------|
--------5--7b(8)r7--5-0----------------|
------------------------------3--------|
---------------------------------------|

Riff

e----------7-7-7-7-7-x-x-x--------- --------------------------------|
B--x-x-x-x-5-5-5-5-5-x-x-x---8-x-x- -7-7-7-7-----x-x---7------x-7-7-|
G--x-x-x-x-5-5-5-5-5-x-x-x---5-x-x- -5-5-5-5-----x-x---5------x-5-5-|
 repeat
                                   e--------------------------------|
                                   B-7-------x-x-x-x-7-5~~----------|
                                   G-5-------x-x-x-x-5-5~~----------|
                                   D-----------------------x-5 -----|
chorus

---------------------------------|
---------------------------------|
--------------------5------------|
---7---5-------------------------|
-----------7----------6-5-(8-7-)-|

Bridge
G--10--9--8--x-7---7-----|
D--9---8--7--x-6---6-----|
A--11--9--9--x-7---7-----|
E--9------7----------x---|

Guitar Solo
e-------------------------------=----------------------5-8b(11) r5-5-|
B-------------------------------=--------------------5------------8--|
G-9b(11)   r(9)-5h7-7~~------5~~=---5-7b(9)r7-5-7b(9)----------------|
D-----------------------5-6-7---=-7----------------------------------|

e--------------x-x-x10b(12)r8--8-----------------------12b(15)-------|
B-8b(10)-------x-x-x10b(12)r-10--10b(14)r  8h10-10~~~~---------------|
G---------7-7/----------------------------------------x--------------|

e-------------------------------------------10b(12)--10-8-10-8-|
B-x-------------------------------------8----------------------|
G-x--5---------5-----7b(9)---7-5-7~~--9---9--------------------|
D--7-5-5h7-7-5----7-5------------------------------------------|

e-8(9)--------8-----------------------------------------------------|
B-----10-8-10---10-8------------------------------------------------|
G--------8------------10\9-\5---------------------------------5-----|
D-----------------------------7-5-7-7---------------------5/7---7-5-|
A------------------------------------5-5\3-5-5b(7)r5-3-5/7----------|
E-------------------------------------------------------------------|

9. Tearjerker

TABBED BY: Andrea Brigo (brig00@palladio.gest.unipd.it)


E|----------------------------------------------------------------------------|
B|----------------------------------------------------------------------------|
G|-9-9-9/11-11-11-11/12-12-12-12/11-11-11-11/12-12-14-14-14-14/12-12-12-12/11-|
D|----------------------------------------------------------------------------|
A|----------------------------------------------------------------------------|
E|----------------------------------------------------------------------------|

E|---------------------------------------------------------------------------|
B|-11-11-11/9-9-9/7-7-6-6/4-6-4-4-4-6-6-9h11p9-7---7-------------------------|
G|-----------------------------------------------9---7-5-5-7-5-4-------------|
D|---------------------------------------------------------------5-(7)-(5)---|
A|---------------------------------------------------------------------------|
E|---------------------------------------------------------------------------|

E|------------------------10-------------------------------------------------|
B|-10-8----8---------8-10----------------------------------------------------|
G|------10---10-7-10---------------------------------------------------------|
D|---------------------------------------------------------------------------|
A|---------------------------------------------------------------------------|
E|---------------------------------------------------------------------------|


Any correction send a mail to brig00@palladio.gest.unipd.it

From: jk@sdf.sdf.se
Date: Mon, 02 Oct 95 13:08:43 -0700


Tearjerker. By Red Hot Chili Peppers from their latest album One hot Minute


This was picked out and written down By Martin Wikstrom in Sundsvall, Sweden.

Since I don’t have my own eMail address you have to use my brother’s
if you want to reach me.

It’s: johanw@krille.update.uu.se
Name the mail something with "martin"

It could take weeks to answer your mail but please, write something to me
if you liked this or if you want to correct it in any way!

Starts off with a Dsus4

e--0--------0-----------------------------|
B--3------3---3---------------------------|
G--2----2-------2-------------------------|
D--0--0-----------0-----------------------|
A-----------------------------------------|
E-----------------------------------------|

e-----------------------------------------------------------------|
B---7p5h7---5p3(h5)--3p1------------------------------------------|
G-------------------------4b5r4---4b-(\2/7)-----------------------|
D-----------------------------------------------------------------|
A-----------------------------------------------------------------|
E-----------------------------------------------------------------|

I dont know if this part is played with a 12 stringed guitar.
It sound very high to me, but I donÔt know.

Anyway, the chords are:

      D   D(On C#)?     G      A    Bm    A5  Bb5   C   Em  F#m

e-----------------------3------5----2---------------0----0--2-----|
B-----7-----7-----------3------5----3---------------1----0--2-----|
G-----7-----7-----------4------6----4---------------0----0--2-----|
D-----7-----7-----------5------7----4-----2---3-----2----2--4-----|
A-----5-----4-----------5------7----2-----0---1-----3----2--4-----|
E-----------------------3------5-------------------------0--2-----|

The thing is that I donÔt know if there is a 12 stringed guitar or if
you play these chords up around the 12-15 fret.

The chords should be played in a arpeggio kind of way
Something like this:
(THIS IS NOT EXACT)

         D         DonC#        G                A
e-------------------------------3----------------5----------------|
B--------7----------7-----------3--------------5-5----------------|
G--------7----------7------------------------6-----6--------------|
D-----7----7------7---7------5-----5-------7----------------------|
A---5-----------4-------------------------------------------------|
E-------------------------3-------------5-------------------------|


 D            DonC#     G               A                     D
My mouth fell open     Hoping that the truth would not not be true
DonC#       Bm
Refuse the news


 D            DonC#     G               A              D
IÔm feeling sick now - What the fuck Am I supposed to do
     DonC#      Bm
Just loose and loose


A5  A5  Bb5   A5  A5  Bb5

 D            DonC#  G               A                D
First time I saw you You were sitting backstage in a dress
 DonC#     Bm
A perfect mess
 D        DonC#     G            A             D   DonC#       Bm
You never knew this But I wanted badly for you to  Requite my love


 C          Em    C            Em    C                  Em
Left on the floor Leaving your body  When highs are the lows
                 F#m    Em         F#m    A5          Bb5   A5        Bb5
and lows are the way   So hard to stay  Guess now you know I love you so

D            DonC#     G               A             D
I liked your whiskers And I liked the dimple in your chin
DonC#          Bm
Your pale blue eyes

D            DonC#     G               A                  D
You painted pictures Cause the one who hurts can give so much
DonC#       Bm
You gave me such


 C          Em    C            Em    C                  Em
Left on the floor Leaving your body  When highs are the lows
                 F#m    Em         F#m    A5             Bb5  A5     Bb5
and lows are the way   So hard to stay  Guess now you know I love you so

I think the ending is something with Bb5  C5  D5
I haven’t had the time to pick out the solo, maybe later.

Well thats it. Hope it is right and that you enjoy it!

Bye!


/ Martin Wikstrom


10. One Hot Minute


     W                   W                   W
E||-------------------|-------------------|-------------------|
B||-------------------|-------------------|-------------------|
G||-------------------|-------------------|-------------------|
D||-------------------|-------------------|-------------------|
A||-------------------|-------------------|-------------------|
E||-------------------|-------------------|-------------------|


  W                   W                   E  E  S    S S S H
-------------------|-------------------|------------------------------|
-------------------|-------------------|------------------------------|
-------------------|-------------------|--------6brb-L-L-L-6b~--------|
-------------------|-------------------|------------------------------|
-------------------|-------------------|------------------------------|
-------------------|-------------------|--0--0------------------------|


  E  E  S    S S S H             E  E  S    S S S H
------------------------------|------------------------------|
------------------------------|------------------------------|
--------6brb-L-L-L-6b~--------|--------6brb-L-L-L-6b~--------|
------------------------------|------------------------------|
------------------------------|------------------------------|
--0--0------------------------|--0--0------------------------|


  E  E  S    S S S H             E  S S E  S S E  S S S S S S
------------------------------|-------------------------------|
------------------------------|-------------------------------|
--------6brb-L-L-L-6b~--------|--5--5-5-5--5-5-5--5-5-5-7-7-9-|
------------------------------|-------------------------------|
------------------------------|--3--3-3-3--3-3-3--3-3-3-5-5-7-|
--0--0------------------------|-------------------------------|


  E  S S E  S S S  S  S S S S S  S     E  E  S    S S S H
--------------------------8-8---11-|--12---------------------------|
--------------------------8-8---11-|--12---------------------------|
--6--6-6-6--6-6--------------------|---------6brb-L-L-L-6b~--------|
------------------10-10------------|-------------------------------|
--4--4-4-4--4-4--------------------|-------------------------------|
--5--5-5-5--5-5-5--8--8------------|------0------------------------|


  E  E  S    S S S H             E  E  S    S S S H
------------------------------|------------------------------|
------------------------------|------------------------------|
--------6brb-L-L-L-6b~--------|--------6brb-L-L-L-6b~--------|
------------------------------|------------------------------|
------------------------------|------------------------------|
--0--0------------------------|--0--0------------------------|


  E  E  S    S S S H             E  S S E  S S E  S S S S S S
------------------------------|-------------------------------|
------------------------------|-------------------------------|
--------6brb-L-L-L-6b~--------|--5--5-5-5--5-5-5--5-5-5-7-7-9-|
------------------------------|-------------------------------|
------------------------------|--3--3-3-3--3-3-3--3-3-3-5-5-7-|
--0--0------------------------|-------------------------------|


                |--3--|  |--3--|
  E  S S E  S S E  E  E  E  E  E
----------------8--8--8--8--8--8--|
----------------8--8--8--8--8--8--|
--6--6-6-6--6-6-------------------|
----------------------------------|
--4--4-4-4--4-4-------------------|
--5--5-5-5--5-5-------------------|


  Fill 1      w/ wah-wah                              End
  E                      E   E    E    E    E    E    E
-----------------------------------------------------------|
-----------------------------------------------------------|
-------------------------6b--6pb--6pb--6pb--6pb--6pb--6pb--|
-----------------------------------------------------------|
-----------------------------------------------------------|
-----------------------------------------------------------|


  Fill 1                                    End
  E            E   E    E    E    E    E    E
-------------------------------------------------|
-------------------------------------------------|
---------------6b--6pb--6pb--6pb--6pb--6pb--6pb--|
-------------------------------------------------|
-------------------------------------------------|
-------------------------------------------------|


  Fill 1                                    End
  E            E   E    E    E    E    E    E
-------------------------------------------------|
-------------------------------------------------|
---------------6b--6pb--6pb--6pb--6pb--6pb--6pb--|
-------------------------------------------------|
-------------------------------------------------|
-------------------------------------------------|


  Fill 1                                    End
  E            E   E    E    E    E    E    E
-------------------------------------------------|
-------------------------------------------------|
---------------6b--6pb--6pb--6pb--6pb--6pb--6pb--|
-------------------------------------------------|
-------------------------------------------------|
-------------------------------------------------|


  E  S S E  S S E  S S S S S S    E  S S E  S S E  S S   S S S S
-------------------------------|---------------------------------|
-------------------------------|---------------------------------|
--5--5-5-5--5-5-5--5-5-5-7-7-9-|--6--6-6-6--6-6-6--6-6-6g9-8-7-6-|
-------------------------------|---------------------------------|
--3--3-3-3--3-3-3--3-3-3-5-5-7-|--4--4-4-4--4-4-4--4-4-4g7-6-5-4-|
-------------------------------|--5--5-5-5--5-5-5--5-5-----------|


  E  S S E  S S E  S S S S S S    W
-------------------------------|-------------------|
-------------------------------|-------------------|
--5--5-5-5--5-5-5--5-5-5-7-7-9-|--6----------------|
-------------------------------|-------------------|
--3--3-3-3--3-3-3--3-3-3-5-5-7-|--4----------------|
-------------------------------|--5----------------|


   Rhy. Fig.1                                                    End
   Q          E   S S S S S S S S S S    Q    E  S S S E.  S S S S
--------------------------------------|------------------------------|
--------------------------------------|------------------------------|
--11---------11--11-9---9-9-9-9-9-9-x-|------------------------------|
--11---------11--11-9---9-9-9-9-9-9-x-|--9----9--x-7---7---L-7-x-x---|
---9----------9---9-7---7-7-7-7-7-7-x-|--9----9--x-7---7---L-7-x-x---|
--------------------------------------|--7----7--x-5---5---L-5-x-x---|


   Rhy. Fig.1                                                    End
   Q          E   S S S S S S S S S S    Q    E  S S S E.  S S S S
--------------------------------------|------------------------------|
--------------------------------------|------------------------------|
--11---------11--11-9---9-9-9-9-9-9-x-|------------------------------|
--11---------11--11-9---9-9-9-9-9-9-x-|--9----9--x-7---7---L-7-x-x---|
---9----------9---9-7---7-7-7-7-7-7-x-|--9----9--x-7---7---L-7-x-x---|
--------------------------------------|--7----7--x-5---5---L-5-x-x---|


   Rhy. Fig.1                                                    End
   Q          E   S S S S S S S S S S    Q    E  S S S E.  S S S S
--------------------------------------|------------------------------|
--------------------------------------|------------------------------|
--11---------11--11-9---9-9-9-9-9-9-x-|------------------------------|
--11---------11--11-9---9-9-9-9-9-9-x-|--9----9--x-7---7---L-7-x-x---|
---9----------9---9-7---7-7-7-7-7-7-x-|--9----9--x-7---7---L-7-x-x---|
--------------------------------------|--7----7--x-5---5---L-5-x-x---|


                                    >     >     >     >
   Q     E   S S S S S S S S S S    E  E  E  E  E  E  E  E
---------------------------------|--------------------------|
---------------------------------|--------------------------|
--11----11--11-9---9-9-9-9-9-9-x-|--3--3--3--3--3--3--3--3--|
--11----11--11-9---9-9-9-9-9-9-x-|--2--2--2--2--2--2--2--2--|
---9-----9---9-7---7-7-7-7-7-7-x-|--3--3--3--3--3--3--3--3--|
---------------------------------|--------------------------|


  >      >     >     >         Rhy. Fill 1
  S S E  E  E  E  E  E  E      E          E  H.
---------------------------|--12---------------------------|
---------------------------|--12---------------------------|
--3-5-5--5--5--5--5--5--x--|-------------------------------|
--2-4-4--4--4--4--4--4--x--|-------------------------------|
--3-5-5--5--5--5--5--5--x--|-----------------7~------------|
---------------------------|--------------0----------------|


  E  E  S    S S S H             E  E  S    S S S H
------------------------------|------------------------------|
------------------------------|------------------------------|
--------6brb-L-L-L-6b~--------|--------6brb-L-L-L-6b~--------|
------------------------------|------------------------------|
------------------------------|------------------------------|
--0--0------------------------|--0--0------------------------|


  E  E  S    S S S H             E  S S E  S S E  S S S S S S
------------------------------|-------------------------------|
------------------------------|-------------------------------|
--------6brb-L-L-L-6b~--------|--5--5-5-5--5-5-5--5-5-5-7-7-9-|
------------------------------|-------------------------------|
------------------------------|--3--3-3-3--3-3-3--3-3-3-5-5-7-|
--0--0------------------------|-------------------------------|


                |--3--|  |--3--|
  E  S S E  S S E  E  E  E  E  E
----------------8--8--8--8--8--8--|
----------------8--8--8--8--8--8--|
--6--6-6-6--6-6-------------------|
----------------------------------|
--4--4-4-4--4-4-------------------|
--5--5-5-5--5-5-------------------|


  Fill 1      w/ wah-wah                              End
  E                      E   E    E    E    E    E    E
-----------------------------------------------------------|
-----------------------------------------------------------|
-------------------------6b--6pb--6pb--6pb--6pb--6pb--6pb--|
-----------------------------------------------------------|
-----------------------------------------------------------|
-----------------------------------------------------------|


  Fill 1                                    End
  E            E   E    E    E    E    E    E
-------------------------------------------------|
-------------------------------------------------|
---------------6b--6pb--6pb--6pb--6pb--6pb--6pb--|
-------------------------------------------------|
-------------------------------------------------|
-------------------------------------------------|


  Fill 1                                    End
  E            E   E    E    E    E    E    E
-------------------------------------------------|
-------------------------------------------------|
---------------6b--6pb--6pb--6pb--6pb--6pb--6pb--|
-------------------------------------------------|
-------------------------------------------------|
-------------------------------------------------|


  Fill 1                                    End
  E            E   E    E    E    E    E    E
-------------------------------------------------|
-------------------------------------------------|
---------------6b--6pb--6pb--6pb--6pb--6pb--6pb--|
-------------------------------------------------|
-------------------------------------------------|
-------------------------------------------------|


  E  S S E  S S E  S S S S S S    E  S S E  S S E  S S   S S S S
-------------------------------|---------------------------------|
-------------------------------|---------------------------------|
--5--5-5-5--5-5-5--5-5-5-7-7-9-|--6--6-6-6--6-6-6--6-6-6g9-8-7-6-|
-------------------------------|---------------------------------|
--3--3-3-3--3-3-3--3-3-3-5-5-7-|--4--4-4-4--4-4-4--4-4-4g7-6-5-4-|
-------------------------------|--5--5-5-5--5-5-5--5-5-----------|


  E  S S E  S S E  S S S S S S    W
-------------------------------|-------------------|
-------------------------------|-------------------|
--5--5-5-5--5-5-5--5-5-5-7-7-9-|--6----------------|
-------------------------------|-------------------|
--3--3-3-3--3-3-3--3-3-3-5-5-7-|--4----------------|
-------------------------------|--5----------------|


   Rhy. Fig.2                                                     End
   Q          E   S S S S S S S S S S    Q    E  S S S S  S S S S E
--------------------------------------|-------------------------------|
--------------------------------------|-------------------------------|
--11---------11--11-9---9-9-9-9-9-9-x-|-------------------------------|
--11---------11--11-9---9-9-9-9-9-9-x-|--9----9--x-7---9-11-x-7-9-4---|
---9----------9---9-7---7-7-7-7-7-7-x-|--9----9--x-7------------------|
--------------------------------------|--7----7--x-5---7--9-x-5-7-2---|


   Rhy. Fig.2                                                     End
   Q          E   S S S S S S S S S S    Q    E  S S S S  S S S S E
--------------------------------------|-------------------------------|
--------------------------------------|-------------------------------|
--11---------11--11-9---9-9-9-9-9-9-x-|-------------------------------|
--11---------11--11-9---9-9-9-9-9-9-x-|--9----9--x-7---9-11-x-7-9-4---|
---9----------9---9-7---7-7-7-7-7-7-x-|--9----9--x-7------------------|
--------------------------------------|--7----7--x-5---7--9-x-5-7-2---|


   Rhy. Fig.2                                                     End
   Q          E   S S S S S S S S S S    Q    E  S S S S  S S S S E
--------------------------------------|-------------------------------|
--------------------------------------|-------------------------------|
--11---------11--11-9---9-9-9-9-9-9-x-|-------------------------------|
--11---------11--11-9---9-9-9-9-9-9-x-|--9----9--x-7---9-11-x-7-9-4---|
---9----------9---9-7---7-7-7-7-7-7-x-|--9----9--x-7------------------|
--------------------------------------|--7----7--x-5---7--9-x-5-7-2---|


                                    >     >     >     >
   Q     E   S S S S S S S S S S    E  E  E  E  E  E  E  E
---------------------------------|--------------------------|
---------------------------------|--------------------------|
--11----11--11-9---9-9-9-9-9-9-x-|--3--3--3--3--3--3--3--3--|
--11----11--11-9---9-9-9-9-9-9-x-|--2--2--2--2--2--2--2--2--|
---9-----9---9-7---7-7-7-7-7-7-x-|--3--3--3--3--3--3--3--3--|
---------------------------------|--------------------------|


  >      >     >     >
  S S E  E  E  E  E  E  E     H        E.  S S  E  S
---------------------------|-------------------------|
---------------------------|-------------------------|
--3-5-5--5--5--5--5--5--x--|---------------7---12--7-|
--2-4-4--4--4--4--4--4--x--|---------------7---12--7-|
--3-5-5--5--5--5--5--5--x--|---------------5---10--5-|
---------------------------|--0--------L-------------|


  Rhy. Fig.3                  End    Rhy. Fig.3                  End
  Q          Q    E.  S S  E  S      Q          Q    E.  S S  E  S
----------------------------------|----------------------------------|
----------------------------------|----------------------------------|
--9b---------L----L---7---12--7---|--9b---------L----L---7---12--7---|
--9b---------L----L---7---12--7---|--9b---------L----L---7---12--7---|
--7b---------L----L---5---10--5---|--7b---------L----L---5---10--5---|
----------------------------------|----------------------------------|


  Rhy. Fig.3                  End    Rhy. Fig.3                  End
  Q          Q    E.  S S  E  S      Q          Q    E.  S S  E  S
----------------------------------|----------------------------------|
----------------------------------|----------------------------------|
--9b---------L----L---7---12--7---|--9b---------L----L---7---12--7---|
--9b---------L----L---7---12--7---|--9b---------L----L---7---12--7---|
--7b---------L----L---5---10--5---|--7b---------L----L---5---10--5---|
----------------------------------|----------------------------------|


  Rhy. Fig.3                  End    Rhy. Fig.3                  End
  Q          Q    E.  S S  E  S      Q          Q    E.  S S  E  S
----------------------------------|----------------------------------|
----------------------------------|----------------------------------|
--9b---------L----L---7---12--7---|--9b---------L----L---7---12--7---|
--9b---------L----L---7---12--7---|--9b---------L----L---7---12--7---|
--7b---------L----L---5---10--5---|--7b---------L----L---5---10--5---|
----------------------------------|----------------------------------|


  Rhy. Fill 2                        >     >     >     >
  Q           Q    E.  S S  S S S    E  E  E  E  E  E  E  E
----------------------------------|--------------------------|
----------------------------------|--------------------------|
--9b----------L----L---7---12-x-x-|--3--3--3--3--3--3--3--3--|
--9b----------L----L---7---12-x-x-|--2--2--2--2--2--2--2--2--|
--7b----------L----L---5---10-x-x-|--3--3--3--3--3--3--3--3--|
----------------------------------|--------------------------|


  >     >     >  >  >  >  >  >
              |--3--|  |--3--|
  E  E  E  E  E  E  E  E  E  E     W                   E  S  S  Q    Q.     E
--------------8--8--8--8--8--8--|-------------------|--------------------------|
--------------8--8--8--8--8--8--|-------------------|--------------------------|
--5--5--5--5--------------------|-------------------|--------------------------|
--4--4--4--4--------------------|-------------------|--------------------------|
--5--5--5--5--------------------|-------------------|-----5h-7~-L----L------5--|
--------------------------------|-------------------|--------------------------|


  E  E  Q    S   S E   E  E     W                   E  E  H.
-----------------------------|-------------------|---------------------|
-----------------------------|-------------------|---------------------|
-----------------------------|-------------------|--------5------------|
-----------------------------|-------------------|-----5--L------------|
--4--5--4----4br-L-L~--L--4--|--2----------------|---------------------|
-----------------------------|-------------------|---------------------|


    E  E  Q    Q.     E      E   E   E.   S E  E  S S E
-------------------------|-------------------------------|
----------2----L---------|-------------------------------|
-------2--L----L---------|-------------------------------|
-------------------------|-------------------------------|
--2g4-----L----L------4--|--11--11--11---11-9--9--L-7-9--|
-------------------------|-------------------------------|


  E.  S S S E  S E.  Q       S S E  E.  S Q.      S   S
--------------------------|-----------------------------|
--------------------------|-----------------------------|
--------------------------|----7----6---9-L-------------|
------4-6-6-7--L-9---L----|--L---9----------------------|
--5-----------------------|-------------7-L------11h-12-|
--------------------------|-----------------------------|


                                 let ring
   Q     E.   S E.  S  E   E     E        E  E  E  E  E  E  E
------------------------------|--------------------------------|
------------------------------|-----------------3-----------L--|
------------------------------|--------------5-----L--5--L--5--|
------------------------------|-----------5-----------L--5--L--|
--11~----L---11-9---9-11--11--|--3--------------------------L--|
------------------------------|--------------------------------|


  Q    E.  S  E.  S E  S  S    E  S  S E  S  S S E.  S  E.
----------------------------|-------------------------------|
-----------4h-5---7-L--7h-9-|--L-----------------7----------|
--6----L---6----------------|-----7h-9-L--9p-7-L-----7h-9---|
----------------------------|-------------------------------|
--4----L--------------------|-------------------------------|
----------------------------|-------------------------------|


  Q.      S  S  E  S  S  E   E     H        E  E  S E.     H.           S E.
--------------------------------|-----------------------|---------------------|
---------10-10p-9--9p-7-(7)--5--|--5--------L-----------|---------------------|
--L-----------------------------|--6--------L--6--L-6---|--4------------L-4---|
--------------------------------|-----------------------|---------------------|
--------------------------------|-----------------------|---------------------|
--------------------------------|-----------------------|---------------------|


  let ring                                           with distortion
  E        Q    E  Q    E  E     W                   H.              S S S S
------------------------------|-------------------|--------------------------|
------------------------------|-------------------|--------------------------|
----------------5--L----5--5--|--6----------------|--5---------------5-7-7-9-|
-----------5-------L----------|-------------------|--------------------------|
--3----------------L----3--3--|--4----------------|--3---------------3-5-5-7-|
------------------------------|-------------------|--------------------------|


                       Rhy. Fig.2
  W                    Q          E   S S S S S S S S S S
-------------------|--------------------------------------|
-------------------|--------------------------------------|
--6----------------|--11---------11--11-9---9-9-9-9-9-9-x-|
-------------------|--11---------11--11-9---9-9-9-9-9-9-x-|
--4----------------|---9----------9---9-7---7-7-7-7-7-7-x-|
--5----------------|--------------------------------------|


                           End     Rhy. Fig.2
  Q    E  S S S S  S S S S E       Q          E   S S S S S S S S S S
-------------------------------|--------------------------------------|
-------------------------------|--------------------------------------|
-------------------------------|--11---------11--11-9---9-9-9-9-9-9-x-|
--9----9--x-7---9-11-x-7-9-4---|--11---------11--11-9---9-9-9-9-9-9-x-|
--9----9--x-7------------------|---9----------9---9-7---7-7-7-7-7-7-x-|
--7----7--x-5---7--9-x-5-7-2---|--------------------------------------|


                           End     Rhy. Fig.2
  Q    E  S S S S  S S S S E       Q          E   S S S S S S S S S S
-------------------------------|--------------------------------------|
-------------------------------|--------------------------------------|
-------------------------------|--11---------11--11-9---9-9-9-9-9-9-x-|
--9----9--x-7---9-11-x-7-9-4---|--11---------11--11-9---9-9-9-9-9-9-x-|
--9----9--x-7------------------|---9----------9---9-7---7-7-7-7-7-7-x-|
--7----7--x-5---7--9-x-5-7-2---|--------------------------------------|


                           End
  Q    E  S S S S  S S S S E       Q     E   S S S S S S S S S S
-------------------------------|---------------------------------|
-------------------------------|---------------------------------|
-------------------------------|--11----11--11-9---9-9-9-9-9-9-x-|
--9----9--x-7---9-11-x-7-9-4---|--11----11--11-9---9-9-9-9-9-9-x-|
--9----9--x-7------------------|---9-----9---9-7---7-7-7-7-7-7-x-|
--7----7--x-5---7--9-x-5-7-2---|---------------------------------|


  Fill 2                      Fill 2
  Q      Q     Q     Q        Q      Q     Q     Q
---------------------------|---------------------------|
---------------------------|---------------------------|
--3~-----3~----3~----3~----|--3~-----3~----3~----3~----|
---------------------------|---------------------------|
---------------------------|---------------------------|
---------------------------|---------------------------|


  Fill 2                      Fill 2
  Q      Q     Q     Q        Q      Q     Q     Q
---------------------------|---------------------------|
---------------------------|---------------------------|
--3~-----3~----3~----3~----|--3~-----3~----3~----3~----|
---------------------------|---------------------------|
---------------------------|---------------------------|
---------------------------|---------------------------|


  Fill 2                      Fill 2
  Q      Q     Q     Q        Q      Q     Q     Q
---------------------------|---------------------------|
---------------------------|---------------------------|
--3~-----3~----3~----3~----|--3~-----3~----3~----3~----|
---------------------------|---------------------------|
---------------------------|---------------------------|
---------------------------|---------------------------|


  Fill 2                      Fill 2
  Q      Q     Q     Q        Q      Q     Q     Q
---------------------------|---------------------------|
---------------------------|---------------------------|
--3~-----3~----3~----3~----|--3~-----3~----3~----3~----|
---------------------------|---------------------------|
---------------------------|---------------------------|
---------------------------|---------------------------|


  Fill 2                      Fill 2
  Q      Q     Q     Q        Q      Q     Q     Q
---------------------------|---------------------------|
---------------------------|---------------------------|
--3~-----3~----3~----3~----|--3~-----3~----3~----3~----|
---------------------------|---------------------------|
---------------------------|---------------------------|
---------------------------|---------------------------|


  Fill 2                      Fill 2
  Q      Q     Q     Q        Q      Q     Q     Q
---------------------------|---------------------------|
---------------------------|---------------------------|
--3~-----3~----3~----3~----|--3~-----3~----3~----3~----|
---------------------------|---------------------------|
---------------------------|---------------------------|
---------------------------|---------------------------|


  Fill 2                      Fill 2
  Q      Q     Q     Q        Q      Q     Q     Q
---------------------------|---------------------------|
---------------------------|---------------------------|
--3~-----3~----3~----3~----|--3~-----3~----3~----3~----|
---------------------------|---------------------------|
---------------------------|---------------------------|
---------------------------|---------------------------|


  Fill 2                      w/ fdbk. & vib. bar effects ad Lib.
  Q      Q     Q     Q        W
---------------------------|--------------------------------------||
---------------------------|--------------------------------------||
--3~-----3~----3~----3~----|--------------------------------------||
---------------------------|--------------------------------------||
---------------------------|--2-----------------------------------||
---------------------------|--0-----------------------------------||

11. Falling Into Grace

intro, talk-box

|----------------|----------------|----------------|----------------|
|----------------|----------------|----------------|----------------|
|----------------|----------------|----------------|----------------|
|----------------|----------------|----------------|-----4-(4)b-----|
|----------------|-----3-(3)b-----|----------------|----------------|
|-2----------0-2-|----------------|-2----------0-2-|----------------|

 verse, with talk-box
                                                            -1
|----------------|----------------|----------------|----------------|
|----------------|----------------|----------------|----------------|
|----------------|----------------|----------------|----------------|
|----------------|----------------|----------------|----------------|
|----------------|-----3-(3)b-----|----------------|----------------|
|-2----------0-2-|----------------|-2----------0-2-|-(2)----0\------|

 fill, start second verse with this
                                                          -1
|----------------|--------------|----------------|---------------|
|----------------|--------------|----------------|---------------|
|----------------|------4b------|----------------|---------------|
|----------------|--------------|----------------|---------------|
|----------------|--------------|----------------|---------------|
|----------------|--------------|-2----------0-2-|-(2)----0\-----|

 chorus, clean
                  1.,2.,3. endings        4. ending
|----------------|-----------------------|----------------|
|.---------------|----8-8-8-8--8-8-8-8--.|----------------|
|----------------|----7-7-7-7--7-7-7-7---|----------------|
|--5------4------|-----------------------|----------------|
|.-3------2------|----7-7-7-7--7-7-7-7--.|-5---4---3------|
|----------------|-0---------------------|----------------|

 guitar solo, with dist. & chorus

|-------------------|------------------|--------------------------------|
|-------------------|------------------|--------------------------------|
|-/11------12-11-12-|----15---(15)\12--|-11h12p11\9/11--(11)\9\8----9p8-|
|-------------------|------------------|--------------------------------|
|-------------------|------------------|--------------------------------|
|-------------------|------------------|--------------------------------|

|------------------|--------------------------------|-------------------------------|
|------------------|--------------------------------|-------------------------------|
|-(8)p5------8---5-|-8-5h8p5\4-(4)/8-5/8--9p8h9p8h9-|-(9)/12--(12)\11--(11)\9---8h9-|
|------------------|--------------------------------|-------------------------------|
|------------------|--------------------------------|-------------------------------|
|------------------|--------------------------------|-------------------------------|

|--------------------|---------------------------|
|--------------------|---------------------------|
|-(9)p8--------(8)\1-|-(1)/7---6---5--(5)/20\----|
|--------------------|---------------------------|
|--------------------|---------------------------|
|--------------------|---------------------------|

 there's an acoustic guitar playing some chords behind the solo...
 and those chords are B7 an C7. the strumming rhythm is quite easy, kind of
 indianish :)
 and on the last bar the acoustic guitar plays D, Db, C notes from 5th fret.

 interlude, with talk-box
                                                         harm.-1½
|----------------|----------------|----------------|----------------|
|----------------|----------------|----------------|----------------|
|----------------|----------------|----------------|----------------|
|----------------|----------------|----------------|--------5\--/---|
|----------------|-----3-(3)b-----|----------------|----------\/----|
|-2----------0-2-|----------------|-2----------0-2-|-(2)------------|
                                                            -1
|----------------|----------------|----------------|----------------|
|----------------|----------------|----------------|----------------|
|----------------|----------------|----------------|----------------|
|----------------|----------------|----------------|----------------|
|----------------|-----3-(3)b-----|----------------|----------------|
|-2----------0-2-|----------------|-2----------0-2-|-(2)----0\------|

 that's it. not difficult at all.
 all you need is talk-box effect, which is kind of shitty.
 well, otherwise it's a cool song to play.
 and that cool chord in the chorus is called Em7.
 thanks.

12. Shallow Be Thy Game

Transcribed by: Ceithre
Tuning: Standard


Intro:

(I Didn't bother with the timing)
                                                                   4x
e|--------------------------------------------------------------------|
b|--------------------------------------------------------------------|
g|--------------------------------------------------------------------|
d|--------------------------------------------------------------------|
a|--10--12--10--10--12--10--------------------------------------------|
e|--------------------------------------------------------------------|
     E5        B5      E5      B5                                  2x
e|--------------------------------------------------------------------|
b|--------------------------------------------------------------------|
g|-------------14--------------14-------------------------------------|
d|---14--------14------14------14-------------------------------------|
a|---14--------12------14------12-------------------------------------|
e|---12----------------12---------------------------------------------|


Verse:
          G5          G5        G5          G5  B5
e|--------------------------------------------------------------------|
b|--------------------------------------------------------------------|
g|--------12----------12--------12----------12--14--------------------|
d|--------12----------12--------12----------12--14--------------------|
a|--------10----------10--------10----------10--12--------------------|
e|-12-0-------10-12-------0-12------10-12-----------------------------|

In between the verses Dave Narvarro plays some wierd solo that I couldn't figure out
but ther is no point playing every note exactly!

Chorus:
        E5  D5   A5   E5   D5   A5
e|--------------------------------------------------------------------|
b|--------------------------------------------------------------------|
g|------9----7---------9----7-----------------------------------------|
d|------9----7----7----9----7----7------------------------------------|
a|------7----5----7----7----5----7------------------------------------|
e|----------------5--------------5------------------------------------|

In the chorus try using an up, down, up, down strumming technique!

Repeat Verse
Repeat Chorus
Repeat second part of the intro


Again for the solo it is a complicated one so I wasn't able to tab it!
Try using amade up one that will fit!

Repeat first part of the verse
Repeat chorus 2x

        Outro:
                                                     8x
e|--------------------------------------------------------------------|
b|--------------------------------------------------------------------|
g|--------15----14----------------------------------------------------|
d|--------15----14----------------------------------------------------|
a|--------13----12----------------------------------------------------|
e|---0-12-------------------------------------------------------------|

Tnen just finish on E5 on the 5th fret and were done!


13. Transcending


Transcribed by Nobbru

 Words by Anthony Kiedis Music by Red Hot Chili Peppers
Arranged by Red Hot Chili Peppers


Gtr I (E A D G B E) - 'Dave Navarro'
Gtr II (E A D G B E) - 'Dave Navarro'
Gtr III (E A D G B E) - 'Dave Navarro'


 Intro & Verse
  Q=90
 4/4
  Gtr I
|------------------------------------------|
|------------------------------------------|
|------------------------------------------|
|-9s11-11-11-(11)-11-11-11s9-9-9-9-9-9-9-9-|
|-7s=9--9--9--(9)--9--9--9s7-7-7-7-7-7-7-7-|
|------------------------------------------|


|--------------------------------------------------|
|--------------------------------------------------|
|--------------------------------------------------|
|-9s11-11-11-(11)-11-11-11-(11)-11s14-14-14-14-14\-|
|-7s=9--9--9--(9)--9--9--9--(9)--9s12-12-12-12-12\-|
|--------------------------------------------------|


|------------------------------------------|
|------------------------------------------|
|------------------------------------------|
|-9s11-11-11-(11)-11-11-11s9-9-9-9-9-9-9-9-|
|-7s=9--9--9--(9)--9--9--9s7-7-7-7-7-7-7-7-|
|------------------------------------------|


|---------------------------------------|
|---------------------------------------|
|---------------------------------------|
|-9s11-11-11-11-11-11-11----------------|
|-7s=9--9--9--9--9--9--9--9-9-9-9-9-9-9-|
|-------------------------7-7-7-7-7-7-7-|


|------------------------------------------|
|------------------------------------------|
|------------------------------------------|
|-9s11-11-11-(11)-11-11-11s9-9-9-9-9-9-9-9-|
|-7s=9--9--9--(9)--9--9--9s7-7-7-7-7-7-7-7-|
|------------------------------------------|


|--------------------------------------------------|
|--------------------------------------------------|
|--------------------------------------------------|
|-9s11-11-11-(11)-11-11-11-(11)-11s14-14-14-14-14\-|
|-7s=9--9--9--(9)--9--9--9--(9)--9s12-12-12-12-12\-|
|--------------------------------------------------|


|------------------------------------------|
|------------------------------------------|
|------------------------------------------|
|-9s11-11-11-(11)-11-11-11s9-9-9-9-9-9-9-9-|
|-7s=9--9--9--(9)--9--9--9s7-7-7-7-7-7-7-7-|
|------------------------------------------|


|---------------------------------------|
|---------------------------------------|
|---------------------------------------|
|-9s11-11-11-11-11-11-11----------------|
|-7s=9--9--9--9--9--9--9--9-9-9-7-7-7-7-|
|-------------------------7-7-7-5-5-5-5-|


|------------------------------------------|
|------------------------------------------|
|------------------------------------------|
|-9s11-11-11-(11)-11-11-11s9-9-9-9-9-9-9-9-|
|-7s=9--9--9--(9)--9--9--9s7-7-7-7-7-7-7-7-|
|------------------------------------------|


|--------------------------------------------------|
|--------------------------------------------------|
|--------------------------------------------------|
|-9s11-11-11-(11)-11-11-11-(11)-11s14-14-14-14-14\-|
|-7s=9--9--9--(9)--9--9--9--(9)--9s12-12-12-12-12\-|
|--------------------------------------------------|


|------------------------------------------|
|------------------------------------------|
|------------------------------------------|
|-9s11-11-11-(11)-11-11-11s9-9-9-9-9-9-9-9-|
|-7s=9--9--9--(9)--9--9--9s7-7-7-7-7-7-7-7-|
|------------------------------------------|


|---------------------------------------|
|---------------------------------------|
|---------------------------------------|
|-9s11-11-11-11-11-11-11----------------|
|-7s=9--9--9--9--9--9--9--9-9-9-7-7-7-7-|
|-------------------------7-7-7-5-5-5-5-|


 Pre-Chorus
  Gtr II
|---------------------------------------------|
|---------------------------------------------|
|-9s11-11-11-11--11--11-11-11-9-9-9-9-8-8-8-8-|
|---------------------------------------------|
|-7s=9--9--9--9---9---9--9--9-7-7-7-7-6-6-6-6-|
|---------------------------------------------|
|
| Gtr I
|---------------------------------------------|
|---------------------------------------------|
|---------------------------------------------|
|-9s===11-11-11-(11)-11-11-11s9-9-9-9-9-9-9-9-|
|-7s====9--9--9--(9)--9--9--9s7-7-7-7-7-7-7-7-|
|---------------------------------------------|


|-----------------------------------------------------|
|-----------------------------------------------------|
|-8s=9--9--9---9---9--9--9---9---9s=6--6--6s=8--8--8--|
|-----------------------------------------------------|
|-6s=7--7--7---7---7--7--7---7---7s=4--4--4s=6--6--6--|
|-----------------------------------------------------|
|
|-----------------------------------------------------|
|-----------------------------------------------------|
|-----------------------------------------------------|
|-9s11-11-11-(11)-11-11-11-(11)-11s14-14-14-14-14\----|
|-7s=9--9--9--(9)--9--9--9--(9)--9s12-12-12-12-12\----|
|-----------------------------------------------------|


|------------------------------------------|
|------------------------------------------|
|-8s11-11-11--11--11-11-11s9-9-9-9s8-8-8-8-|
|------------------------------------------|
|-6s=9--9--9---9---9--9--9s7-7-7-7s6-6-6-6-|
|------------------------------------------|
|
|------------------------------------------|
|------------------------------------------|
|------------------------------------------|
|-9s11-11-11-(11)-11-11-11s9-9-9-9-9-9-9-9-|
|-7s=9--9--9--(9)--9--9--9s7-7-7-7-7-7-7-7-|
|------------------------------------------|


|----------------------------------------|
|----------------------------------------|
|-8s=9--9--9--9--9--9--9s6-6-6-6s4-4-4-4-|
|----------------------------------------|
|-6s=7--7--7--7--7--7--7s4-4-4-4s2-2-2-2-|
|----------------------------------------|
|
|----------------------------------------|
|----------------------------------------|
|----------------------------------------|
|-9s11-11-11-11-11-11-11-----------------|
|-7s=9--9--9--9--9--9--9---9-9-9-9-9-7-7-|
|--------------------------7-7-7-7-7-5-5-|


 Chorus
  Gtr I
                 ~~
|------------------------------------|---------------------------------|
|------------------------------------|---------------------------------|
|-------------9h11-------------------|---------------------------------|
|---9h11-(11)------9h11---11p9-------|-------7----------9--------------|
|-9---------------------9------9-7---|---9------------9------11p9----0-|
|----------------------------------9-|-7---7---7h9S11-----11------11---|


                 ~~
|------------------------------------|---------------------------------|
|------------------------------------|---------------------------------|
|-------------9h11-------------------|---------------------------------|
|---9h11-(11)------9h11---11p9-------|-------7----------9--------------|
|-9---------------------9------9-7---|---9------------9------11p9----0-|
|----------------------------------9-|-7---7---7h9S11-----11------11---|


                 ~~
|------------------------------------|---------------------------------|
|------------------------------------|---------------------------------|
|-------------9h11-------------------|---------------------------------|
|---9h11-(11)------9h11---11p9-------|-------7----------9--------------|
|-9---------------------9------9-7---|---9------------9------11p9----0-|
|----------------------------------9-|-7---7---7h9S11-----11------11---|


                 ~~
|------------------------------------|---------------------------------|
|------------------------------------|---------------------------------|
|-------------9h11------9------------|---------------------------------|
|---9h11-(11)------9h11---11p9-------|-------7----------9--------------|
|-9---------------------9------9-7---|---9------------9------11p9----0-|
|----------------------------------9-|-7---7---7h9S11-----11------11---|


 Verse
|------------------------------------------|
|------------------------------------------|
|------------------------------------------|
|-9s11-11-11-(11)-11-11-11s9-9-9-9-9-9-9-9-|
|-7s=9--9--9--(9)--9--9--9s7-7-7-7-7-7-7-7-|
|------------------------------------------|


|--------------------------------------------------|
|--------------------------------------------------|
|--------------------------------------------------|
|-9s11-11-11-(11)-11-11-11-(11)-11s14-14-14-14-14\-|
|-7s=9--9--9--(9)--9--9--9--(9)--9s12-12-12-12-12\-|
|--------------------------------------------------|


|------------------------------------------|
|------------------------------------------|
|------------------------------------------|
|-9s11-11-11-(11)-11-11-11s9-9-9-9-9-9-9-9-|
|-7s=9--9--9--(9)--9--9--9s7-7-7-7-7-7-7-7-|
|------------------------------------------|


|---------------------------------------|
|---------------------------------------|
|---------------------------------------|
|-9s11-11-11-11-11-11-11----------------|
|-7s=9--9--9--9--9--9--9--9-9-9-9-9-9-9-|
|-------------------------7-7-7-7-7-7-7-|


|------------------------------------------|
|------------------------------------------|
|------------------------------------------|
|-9s11-11-11-(11)-11-11-11s9-9-9-9-9-9-9-9-|
|-7s=9--9--9--(9)--9--9--9s7-7-7-7-7-7-7-7-|
|------------------------------------------|


|--------------------------------------------------|
|--------------------------------------------------|
|--------------------------------------------------|
|-9s11-11-11-(11)-11-11-11-(11)-11s14-14-14-14-14\-|
|-7s=9--9--9--(9)--9--9--9--(9)--9s12-12-12-12-12\-|
|--------------------------------------------------|


|------------------------------------------|
|------------------------------------------|
|------------------------------------------|
|-9s11-11-11-(11)-11-11-11s9-9-9-9-9-9-9-9-|
|-7s=9--9--9--(9)--9--9--9s7-7-7-7-7-7-7-7-|
|------------------------------------------|


|---------------------------------------|
|---------------------------------------|
|---------------------------------------|
|-9s11-11-11-11-11-11-11----------------|
|-7s=9--9--9--9--9--9--9--9-9-9-9-9-9-9-|
|-------------------------7-7-7-7-7-7-7-|


|------------------------------------------|
|------------------------------------------|
|------------------------------------------|
|-9s11-11-11-(11)-11-11-11s9-9-9-9-9-9-9-9-|
|-7s=9--9--9--(9)--9--9--9s7-7-7-7-7-7-7-7-|
|------------------------------------------|


|--------------------------------------------------|
|--------------------------------------------------|
|--------------------------------------------------|
|-9s11-11-11-(11)-11-11-11-(11)-11s14-14-14-14-14\-|
|-7s=9--9--9--(9)--9--9--9--(9)--9s12-12-12-12-12\-|
|--------------------------------------------------|


|------------------------------------------|
|------------------------------------------|
|------------------------------------------|
|-9s11-11-11-(11)-11-11-11s9-9-9-9-9-9-9-9-|
|-7s=9--9--9--(9)--9--9--9s7-7-7-7-7-7-7-7-|
|------------------------------------------|


|---------------------------------------|
|---------------------------------------|
|---------------------------------------|
|-9s11-11-11-11-11-11-11----------------|
|-7s=9--9--9--9--9--9--9--9-9-9-9-9-9-9-|
|-------------------------7-7-7-7-7-7-7-|


 Pre-chorus 2
  Gtr II
|---------------------------------------------|
|---------------------------------------------|
|-9s11-11-11-11--11--11-11-11-9-9-9-9-8-8-8-8-|
|---------------------------------------------|
|-7s=9--9--9--9---9---9--9--9-7-7-7-7-6-6-6-6-|
|---------------------------------------------|
|
| Gtr I
|---------------------------------------------|
|---------------------------------------------|
|---------------------------------------------|
|-9s===11-11-11-(11)-11-11-11s9-9-9-9-9-9-9-9-|
|-7s====9--9--9--(9)--9--9--9s7-7-7-7-7-7-7-7-|
|---------------------------------------------|


|-----------------------------------------------------|
|-----------------------------------------------------|
|-8s=9--9--9---9---9--9--9---9---9s=6--6--6s=8--8--8--|
|-----------------------------------------------------|
|-6s=7--7--7---7---7--7--7---7---7s=4--4--4s=6--6--6--|
|-----------------------------------------------------|
|
|-----------------------------------------------------|
|-----------------------------------------------------|
|-----------------------------------------------------|
|-9s11-11-11-(11)-11-11-11-(11)-11s14-14-14-14-14\----|
|-7s=9--9--9--(9)--9--9--9--(9)--9s12-12-12-12-12\----|
|-----------------------------------------------------|


|------------------------------------------|
|------------------------------------------|
|-8s11-11-11--11--11-11-11s9-9-9-9s8-8-8-8-|
|------------------------------------------|
|-6s=9--9--9---9---9--9--9s7-7-7-7s6-6-6-6-|
|------------------------------------------|
|
|------------------------------------------|
|------------------------------------------|
|------------------------------------------|
|-9s11-11-11-(11)-11-11-11s9-9-9-9-9-9-9-9-|
|-7s=9--9--9--(9)--9--9--9s7-7-7-7-7-7-7-7-|
|------------------------------------------|


|----------------------------------------|
|----------------------------------------|
|-8s=9--9--9--9--9--9--9s6-6-6-6s4-4-4-4-|
|----------------------------------------|
|-6s=7--7--7--7--7--7--7s4-4-4-4s2-2-2-2-|
|----------------------------------------|
|
|----------------------------------------|
|----------------------------------------|
|----------------------------------------|
|-9s11-11-11-11-11-11-11-----------------|
|-7s=9--9--9--9--9--9--9---9-9-9-9-9-9-9-|
|--------------------------7-7-7-7-7-7-7-|


 Chorus
  Gtr I
                 ~~
|------------------------------------|---------------------------------|
|------------------------------------|---------------------------------|
|-------------9h11-------------------|---------------------------------|
|---9h11-(11)------9h11---11p9-------|-------7----------9--------------|
|-9---------------------9------9-7---|---9------------9------11p9----0-|
|----------------------------------9-|-7---7---7h9S11-----11------11---|


                 ~~
|------------------------------------|---------------------------------|
|------------------------------------|---------------------------------|
|-------------9h11-------------------|---------------------------------|
|---9h11-(11)------9h11---11p9-------|-------7----------9--------------|
|-9---------------------9------9-7---|---9------------9------11p9----0-|
|----------------------------------9-|-7---7---7h9S11-----11------11---|


                 ~~
|------------------------------------|---------------------------------|
|------------------------------------|---------------------------------|
|-------------9h11-------------------|---------------------------------|
|---9h11-(11)------9h11---11p9-------|-------7----------9--------------|
|-9---------------------9------9-7---|---9------------9------11p9----0-|
|----------------------------------9-|-7---7---7h9S11-----11------11---|


                 ~~
|------------------------------------|---------------------------------|
|------------------------------------|---------------------------------|
|-------------9h11------9------------|---------------------------------|
|---9h11-(11)------9h11---11p9-------|-------7----------9--------------|
|-9---------------------9------9-7---|---9------------9------11p9----0-|
|----------------------------------9-|-7---7---7h9S11-----11------11---|


 Interlude & Outro
|---------------------------------------------------|
|---------------------------------------------------|
|----------------------11----11h13----11-(11)----13-|
|-----------11h13-(13)------------------------------|
|-9h11-(11)---------------11-------11---------11----|
|---------------------------------------------------|


|---------------------------------------|
|---------------------------------------|
|-15-13-(13)-13-------13-13-13-11-11-11-|
|-11-11-(11)-11-14-14-14-14-14-13-13-13-|
|---------------11-11-------------------|
|---------------------------------------|


|-----------------------------------------------------|
|-----------------------------------------------------|
|-------11-11-(11)-11-13-13-(13)-13-13-13-11-13-13-11-|
|-11h13-13-13-(13)-13-13-13-(13)-13-13-13-13-13-13-11-|
|-11--------------------------------------------------|
|-----------------------------------------------------|


|-------------------------------------------------|
|-------------------------------------------------|
|-15-15-15-13-13-13----------13-13-13-13-11-11-11-|
|-11-11-11-11-11-11-14-14-14-14-14-14-14-13-13-13-|
|-------------------11-11-11----------------------|
|-------------------------------------------------|


|-----------------------------------------------|
|-----------------------------------------------|
|-------11-(11)-11-11h13-(13)-13-13-11-13-13-11-|
|-11h13-13-(13)-13-13---------13-13-13-13-13-11-|
|-11--------------------------------------------|
|-----------------------------------------------|


|----------------------------------------|
|----------------------------------------|
|-15-15-15-13-13-13---------13-13--------|
|-11-11-11-11-11-11-14-(14)-14-14-14-13--|
|-------------------11-(11)-11-11-11-11--|
|----------------------------------------|


|-----------------------------|------------------------------|
|-----------------------------|------------------------------|
|-8-8-8-(8)-8-8-8-8-8-8-8-x-x-|-8-8-8-(8)-8-9-9-9-9-9-9-x-x--|
|-9-9-9-(9)-9-9-9-9-9-9-9-x-x-|-9-9-9-(9)-9-9-9-9-9-9-9-x-x--|
|-9-9-9-(9)-9-9-9-9-9-9-9-x-x-|-7-7-7-(7)-7-7-7-7-7-7-7-x-x--|
|-7-7-7-(7)-7-7-7-7-7-7-7-x-x-|------------------------------|


|-----------------------------|------------------------------|
|-----------------------------|------------------------------|
|-8-8-8-(8)-8-8-8-8-8-8-8-x-x-|-8-8-8-(8)-8-9-9-9-9-9-9-x-x--|
|-9-9-9-(9)-9-9-9-9-9-9-9-x-x-|-9-9-9-(9)-9-9-9-9-9-9-9-x-x--|
|-9-9-9-(9)-9-9-9-9-9-9-9-x-x-|-7-7-7-(7)-7-7-7-7-7-7-7-x-x--|
|-7-7-7-(7)-7-7-7-7-7-7-7-x-x-|------------------------------|


|-----------------------------|------------------------------|
|-----------------------------|------------------------------|
|-8-8-8-(8)-8-8-8-8-8-8-8-x-x-|-8-8-8-8-8-9-9-9-9-9-9-9-9-9/-|
|-9-9-9-(9)-9-9-9-9-9-9-9-x-x-|-9-9-9-9-9-9-9-9-9-9-9-9-9-9/-|
|-9-9-9-(9)-9-9-9-9-9-9-9-x-x-|-7-7-7-7-7-7-7-7-7-7-7-7-7-7/-|
|-7-7-7-(7)-7-7-7-7-7-7-7-x-x-|------------------------------|


|------------------------------------------|
|----------------------------9--9--9--9--9-|
|-11-11-11-(11)-11-11-11-11-11-11-11-11-11-|
|-11-11-11-(11)-11-11-11-11-11-11-11-11-11-|
|--9--9--9--(9)--9--9--9--9--9--9--9--9--9-|
|--9--9--9--(9)--9--9--9--9--9--9--9--9--9-|


|-----------------9--9--9--9--9--9--9--9--9-|
|--9--9--9--9--9--9--9--9--9--9--9--9--9--9-|
|-11-11-11-11-11-11-11-11-11-11-11-11-11-11-|
|-11-11-11-11-11-11-11-11-11-11-11-11-11-11-|
|--9--9--9--9--9--9--9--9--9--9--9--9--9--9-|
|--9--9--9--9--9--9--9--9--9--9--9--9--9--9-|


|--9--9--9--9--9--9--9--9--9--9--9--9--9--9-|
|--9--9--9--9--9--9--9--9--9--9--9--9--9--9-|
|-11-11-11-11-11-11-11-11-11-11-11-11-11-11-|
|-11-11-11-11-11-11-11-11-11-11-11-11-11-11-|
|--9--9--9--9--9--9--9--9--9--9--9--9--9--9-|
|--9--9--9--9--9--9--9--9--9--9--9--9--9--9-|


                                              Gtrs I, III
                                                      ~~~~~~~~~~~~~
|--9--9--9--9--9--9--9--9--9--9--9--9--9--9-|--------12-(12)--(12)-15-(15)-|
|--9--9--9--9--9--9--9--9--9--9--9--9--9--9-|--------12-(12)--(12)-14-(14)-|
|-11-11-11-11-11-11-11-11-11-11-11-11-11-11-|--------12-(12)--(12)---------|
|-11-11-11-11-11-11-11-11-11-11-11-11-11-11-|------------------------------|
|--9--9--9--9--9--9--9--9--9--9--9--9--9--9-|------------------------------|
|--9--9--9--9--9--9--9--9--9--9--9--9--9--9-|-0--(0)-----------------------|


  \0.5/                                     \1.5/
                     ~~~~~~~~~~~~~                             ~~~~~~~~~~~~~
|-----------------------------------------|-------------------12-(12)--(12)---|
|-------------------12-(12)--(12)-14-(14)-|-------------------12-(12)--(12)---|
|-------------------12-(12)--(12)-14-(14)-|-------------------12-(12)--(12)---|
|-----------------------------------------|-----------------------------------|
|-----------------------------------------|---------------------------------x-|
|-0-----(0)-(0)-(0)-----------------------|-0-----(0)-(0)-(0)---------------x-|


|-------------------------------------------|
|-------------------------------------------|
|-------------------------------------------|
|-11-11-11-12-12-12s7-7-7-5-5-5-------------|
|-----------------------------------5-7b11==|
|--9--9--9-10-10-10s5-5-5-3-3-3-5h7---------|


                   ~~~~~~~~~~~~~
|-----------------12-(12)--(12)-------------------------|
|---------------0-12-(12)--(12)-15b17r(15)-15b19==(15)r-|
|-----------------12-(12)--(12)-------------------------|
|-------------------------------------------------------|
|-(7)--(7)-(7)r-----------------------------------------|
|-------------------------------------------------------|


  \1/                                   \1.5/
              ~~~~~~~~~~~~~                                ~~~~~~~~~~~~~
|------------12-(12)--(12)------------|-------------------12-(12)--(12)-----|
|------------12-(12)--(12)-15----(15)-|-------------------12-(12)--(12)-----|
|----------0-12-(12)--(12)-14b16r(14)-|-------------------12-(12)--(12)-0---|
|-------------------------------------|-------------------------------------|
|-------------------------------------|-------------------------------------|
|-0----(0)----------------------------|-0-----(0)-(0)-(0)-----------------x-|


|---------------------------------------|
|---------------------------------------|
|---------------------------------------|
|-11-11-11-12-12-12s7-9s7-5-5-5-7s9-----|
|---------------------------------------|
|--9--9--9-10-10-10s5-7s5-3-3-3-5s7-0-0-|


                                       \2.5/
                  ~~~~~~~~~~~~~                           ~~~~~~~~~~~~~
|----------------12-(12)--(12)-------|-------------------12-(12)--(12)--------|
|----------------12-(12)--(12)-15----|-------------------12-(12)--(12)-15b19--|
|----------------12-(12)--(12)-14b16-|-------------------12-(12)--(12)--------|
|-7s9s12s17s23-0---------------------|----------------------------------------|
|------------------------------------|----------------------------------------|
|------------------------------------|-0-----(0)-(0)-(0)----------------------|


  \1.5/
                     ~~~~~~~~~~~~~
|-------------------12-(12)--(12)-----|
|-------------------12-(12)--(12)-----|
|-------------------12-(12)--(12)-0---|
|-------------------------------------|
|-----------------------------------x-|
|-0-----(0)-(0)-(0)-----------------x-|


                                                                   \1.5/
                                                     ~~~~~~~~~~~~~
|-----------------------------------------|-------x-12-(12)--(12)-12-----(12)--|
|-----------------------------------------|-------x-12-(12)--(12)-12-----(12)--|
|-----------------------------------------|-------x-12-(12)--(12)-12-----(12)--|
|-11-11-11-12-12-12s7-7-7-5-5-5-----------|------------------------------------|
|-----------------------------------5-7b9r|=(7)--------------------------------|
|--9--9--9-10-10-10s5-5-5-3-3-3-5h7-------|------------------------------------|


                 \2.5/       \1.5/
         ~~~~~~~                         ~~~~~~~
|-----x-12-(12)------------|------------12-(12)----|
|-----x-12-(12)------------|------------12-(12)----|
|-----x-12-(12)--0-----(0)-|------------12-(12)----|
|--------------------------|-----------------------|
|--------------------------|-----------------------|
|-0------------------------|-0------(0)------------|


|-------------------------------------------|
|-------------------------------------------|
|-------------------------------------------|
|-11-11-11-12-12-12s7-7-7-5-5-5-------------|
|-----------------------------------5-7b11r=|
|--9--9--9-10-10-10s5-5-5-3-3-3-5h7---------|


               \1.5/                  \0.5/     \0.5/      \1.5/    \0.5/
|-------------12-----(12)-(12)-(12)-|----------12--------|-------------------|
|-------------12-----(12)-(12)-(12)-|----------12--------|-------------------|
|-----------0-12-----(12)-(12)-(12)-|----------12--------|-------------------|
|-----------------------------------|--------------------|----------5--------|
|-(7)---(7)-------------------------|--------------------|-------------------|
|-----------------------------------|-0------------------|-0-----------------|


                                                                         \1/
                                                 ~~~~~~~~~~~~~~~~~~~~~~
|----------------------------------------------|----------|------------------|
|----------------------------------------------|----------|------------------|
|----------------------------------------------|----------|------------------|
|-11-11-11-12-12-12s7-7-7-5-5-5----------------|----------|------------------|
|-----------------------------------5-7b11r(7)-|-7--------|-(7)----(7)---7---|
|--9--9--9-10-10-10s5-5-5-3-3-3-5h7------------|----------|------------------|


                  \1/ \1/     \1/
          ~~~~~~~
|---------------------------------|------------------|
|---------------------------------|------------------|
|---------------------------------|------------------|
|---------------------------------|------------------|
|-(7)-(7)-7--(7)--7---7---(7)-7---|-(7)----(7)--(7)--|
|---------------------------------|------------------|


  \1/                    \1.5/
|---------------|--------------------|
|---------------|--------0-------(0)-|
|---------------|--------0-------(0)-|
|---------------|--------------------|
|-7------(7)----|-(7)----------------|
|---------------|--------------------|


  \1.5/
              ~~~~~~~~~~~~~
|------------12-(12)--(12)-14-(14)-|
|------------12-(12)--(12)-14-(14)-|
|------------12-(12)--(12)---------|
|----------------------------------|
|----------------------------------|
|-0------(0)-----------------------|


   \1.5/                                       \1.5/
                  ~~~~~~~~~~~~~~~~~~    ~~~~~
|-----------------------------------15-17b19-|----------------------------------|
|----------------17b20==(17)--(17)r----------|----------------------------------|
|--------------------------------------------|----------------<5>-(<5>)---(<5>)-|
|--------------------------------------------|----------------------------------|
|--------------------------------------------|----------------------------------|
|--0-----(0)-(0)-----------------------------|-0------(0)-(0)-------------------|


|-------------------------------------|
|-------------------------------------|
|-------------------------------------|
|-11-11-11-12-12-12s7-7-7-5-5-5-7/----|
|---------------------------------7-7-|
|--9--9--9-10-10-10s5-5-5-3-3-3-5s0-0-|


        \1.5/                           \0.5/
                   ~~~~~~~
|-----------------12-(12)-------------|----------------------------------|
|-15--------------12-(12)-------------|---------------17b19==(17)r-------|
|-14b16-----------12-(12)---<5>-(<5>)-|------------------------------x-0-|
|-------------------------------------|----------------------------------|
|-------------------------------------|----------------------------------|
|-------0-----(0)---------------------|-0-----(0)-(0)--------------------|


  \1.5/
                 ~~~~~~~
|---------------12-(12)----|
|---------------12-(12)----|
|---------------12-(12)----|
|--------------------------|
|--------------------------|
|-0-----(0)-(0)------------|


|------------------------------------------|---------------|
|------------------------------------------|---------------|
|------------------------------------------|--------<5>----|
|-11-11-11-12-12-12s7-7-7-5-5-5------------|--------<5>----|
|-----------------------------------5-7b11r|=(7)-----------|
|--9--9--9-10-10-10s5-5-5-3-3-3-5h7--------|---------------|


  \0.5/                                \1.5/
                                                   ~~~~~~~~~~~~~
|------------15-----(15)-(15)-(15)---|------------12-(12)--(12)-------|
|------------15b16==(15)-(15)-(15)r--|------------12-(12)--(12)-------|
|------------------------------------|------------12-(12)--(12)-0-0-0-|
|------------------------------------|--------------------------0-0-0-|
|------------------------------------|--------------------------------|
|-0------(0)-------------------------|-0------(0)---------------------|


                   \1/
                       ~~~~~~~~~~~
|---------------------------|------------*|
|----------11-(11)-0---0----|-(0)--------*|
|----------10-(10)-0---0----|-(0)--------*|
|-11-11-11---------0---0----|-(0)--------*|
|------------------0---0----|-(0)--------*|
|--9--9--9---------0---0----|-(0)--------*|
comments
print report bad tab
2 comments total.
0 reply
Browan wrote on November 4 2006, 08:03 pm

all was really well, especially "my friends". good job

0 reply
Frusciante19 wrote on September 11 2010, 01:43 pm

i don't like this album very much, but this tabbing was OK man...thanks - walkabout and my friends were especially good

I want to post or [tab]
guest
You may want to rate the tab now too:
select rating
Please do not post tabs as comments. Select "correction" instead!