Oops, an error
Loading. Please wait.

Scar Tissue Bass Tab

ver1
ver1
More versions @911Tabs.com
35,314 views 38 this week
1 commentread comment
1 2 3 4 5
accurate
x 6
Autoscroll
+/-
esc
set tempo
stop
Contributor
Hey! There's an official Ultimate Guitar app which is ideal
for learning songs when you're away from computer. Get the app
WARNING: You are trying to view
                                    content from Ultimate-Guitar.com
                                    in an unauthorized application,
                                    which is prohibited.

                                    Please use an official Ultimate
                                    Guitar Tabs application for iPhone,
                                    iPad or Android to access legitimate
                                    chords, guitar, bass, and drum tabs
                                    from Ultimate-Guitar.com database.

                                    Type "ultimate guitar tabs" in Apple
                                    App Store's or Android Market's
                                    search to find the application.
SCAR TISSUE

INTRO

G|---------------------------------|---------------------------------|
D|---------------------------------|---------------------------------|
A|---------------------------------|---------------------------------|
E|---------------------------------|---------------------------------|
   1 + + + 2 + + + 3 + + + 4 + + +   1 + + + 2 + + + 3 + + + 4 + + +

G|---------------------------------|---------------------------------|
D|---------------------------------|---------------------------------|
A|---------------------------------|-------------------------12\-----|
E|---------------------------------|---------------------------------|
   1 + + + 2 + + + 3 + + + 4 + + +   1 + + + 2 + + + 3 + + + 4 + + +

VERSE

G|---------------------------------|---------------------------------|
D|---------------------------------|---------------------------------|
A|-8-----x-8---8-------------------|-3/5---5-5---5-5---5-8---5-------|
E|---------------5---x-5-----x-8---|-----------------------------8---|
   1 + + + 2 + + + 3 + + + 4 + + +   1 + + + 2 + + + 3 + + + 4 + + +

G|---------------------------------|---------------------------------|
D|---------------------------------|---------------------------------|
A|-8-----x-8---8-------------------|-3/5---5-5---5-5-----------5-----|
E|---------------5---x-5-----x-8---|---------------------5-8-----8---|
   1 + + + 2 + + + 3 + + + 4 + + +   1 + + + 2 + + + 3 + + + 4 + + +

CHORUS

G|---------------------------------|---------------------------------|
D|---------------------------------|---------------------------------|
A|-8-----x-8---8-------------------|-5-----5-5---5-5---5-8---5-------|
E|---------------5---x-5-----x-8---|-----------------------------8---|
   1 + + + 2 + + + 3 + + + 4 + + +   1 + + + 2 + + + 3 + + + 4 + + +

G|---------------------------------|---------------------------------|
D|---------------------------------|---------------------------------|
A|-8-----x-8---8-------------------|-5-----5-5---5-5---5-8---5-------|
E|---------------5---x-5-----x-8---|-----------------------------8---|
   1 + + + 2 + + + 3 + + + 4 + + +   1 + + + 2 + + + 3 + + + 4 + + +

VERSE

G|---------------------------------|---------------------------------|
D|---------------------------------|---------------------------------|
A|-8-----x-8---8-------------------|-3/5---5-5---5-5---5-8---5-------|
E|---------------5---x-5-----x-8---|-----------------------------8---|
   1 + + + 2 + + + 3 + + + 4 + + +   1 + + + 2 + + + 3 + + + 4 + + +

G|---------------------------------|---------------------------------|
D|---------------------------------|---------------------------------|
A|-8-----x-8---8-------------------|-3/5---5-5---5-5---5-8---5-------|
E|---------------5---x-5-----x-8---|-----------------------------8---|
   1 + + + 2 + + + 3 + + + 4 + + +   1 + + + 2 + + + 3 + + + 4 + + +

CHORUS

G|---------------------------------|---------------------------------|
D|---------------------------------|---------------------------------|
A|-8-----x-8---8-------------------|-5-----5-5---5-5---5-8---5-------|
E|---------------5---x-5-----x-8---|-----------------------------8---|
   1 + + + 2 + + + 3 + + + 4 + + +   1 + + + 2 + + + 3 + + + 4 + + +

G|---------------------------------|---------------------------------|
D|---------------------------------|---------------------------------|
A|-8-----x-8---8-------------------|-5-----5-5---5-5---5-8---5-------|
E|---------------5---x-5-----x-8---|-----------------------------8---|
   1 + + + 2 + + + 3 + + + 4 + + +   1 + + + 2 + + + 3 + + + 4 + + +

G|---------------------------------|---------------------------------|
D|---------------------------------|---------------------------------|
A|-8---8-8-8---8-8-----------------|-5-----5-5-------8-------8-------|
E|-------------------x-8-------8---|---------------------------------|
   1 + + + 2 + + + 3 + + + 4 + + +   1 + + + 2 + + + 3 + + + 4 + + +

GUITAR SOLO 1

G|-19------19----19----19----17----|-14------14----14----14----14----|
D|-0-------0-----0-----0-----0-----|-0-------0-----0-----0-----0-----|
A|---------------------------------|---------------------------------|
E|---------------------------------|---------------------------------|
   1 + + + 2 + + + 3 + + + 4 + + +   1 + + + 2 + + + 3 + + + 4 + + +

G|---------9-------9---9---9---9---|---------------------------------|
D|---------------------------------|---------12----------------------|
A|---------------------------------|-------12----12\-5-------7-------|
E|-8-------------8---8---8---8-----|-10------------------------------|
   1 + + + 2 + + + 3 + + + 4 + + +   1 + + + 2 + + + 3 + + + 4 + + +

VERSE

G|---------------------------------|---------------------------------|
D|---------------------------------|---------------------------------|
A|-8-----x-8---8-------------------|-3/5---5-5---5-5---5-8---5-------|
E|---------------5---x-5-----x-8---|-----------------------------8---|
   1 + + + 2 + + + 3 + + + 4 + + +   1 + + + 2 + + + 3 + + + 4 + + +

G|---------------------------------|---------------------------------|
D|---------------------------------|---------------------------------|
A|-8-----x-8---8-------------------|---5---5-5---5-5-----------5-----|
E|---------------5---x-5-----x-8---|-8-------------------5-8-----8-5-|
   1 + + + 2 + + + 3 + + + 4 + + +   1 + + + 2 + + + 3 + + + 4 + + +

CHORUS

G|---------------------------------|---------------------------------|
D|---------------------------------|---------------------------------|
A|-8-----x-8---8-------------------|-5-----5-5---5-5---5-8---5-------|
E|---------------5---x-5-----x-8---|-----------------------------8---|
   1 + + + 2 + + + 3 + + + 4 + + +   1 + + + 2 + + + 3 + + + 4 + + +

G|---------------------------------|---------------------------------|
D|---------------------------------|---------------------------------|
A|-8-----x-8---8-------------------|-5-----5-5---5-5---5-8---5-------|
E|---------------5---x-5-----x-8---|-----------------------------8---|
   1 + + + 2 + + + 3 + + + 4 + + +   1 + + + 2 + + + 3 + + + 4 + + +

VERSE

G|---------------------------------|---------------------------------|
D|---------------7---x-7-------10--|---------------------------------|
A|-8-------8---8-------------x-10--|---------------------------5-----|
E|---------------------------------|-8h10----10--1010--x-5-8-----8---|
   1 + + + 2 + + + 3 + + + 4 + + +   1 + + + 2 + + + 3 + + + 4 + + +

G|---------------------------------|---------------------------------|
D|---------------------------------|--------------/12--10------------|
A|-8-----x-8---8-------------------|---------5-------------12--x-10\-|
E|---------------5---x-5-----x-8---|-8/10----------------------------|
   1 + + + 2 + + + 3 + + + 4 + + +   1 + + + 2 + + + 3 + + + 4 + + +

CHORUS

G|---------------------------------|---------------------------------|
D|---------------------------------|---------------------------------|
A|-8-----x-8---8-------------------|-5-----5-5---5-5---5-8---5-------|
E|---------------5---x-5-----x-8---|-----------------------------8---|
   1 + + + 2 + + + 3 + + + 4 + + +   1 + + + 2 + + + 3 + + + 4 + + +

G|---------------------------------|---------------------------------|
D|---------------------------------|---------------------------------|
A|-8-----x-8---8-------------------|-5-----5-5---5-5---5-8---5-------|
E|---------------5---x-5-----x-8---|-----------------------------8---|
   1 + + + 2 + + + 3 + + + 4 + + +   1 + + + 2 + + + 3 + + + 4 + + +

G|---------------------------------|---------------------------------|
D|---------------------------------|---------------------------------|
A|-8---8-8-8---8-8-----------------|-5-----5-5-------8-------8-------|
E|-------------------x-8-------8---|---------------------------------|
   1 + + + 2 + + + 3 + + + 4 + + +   1 + + + 2 + + + 3 + + + 4 + + +

GUITAR SOLO 2

G|-19------19----19----19----17----|-14------14----17----14----14----|
D|-0-------0-----0-----0-----0-----|-0-------0-----0-----0-----0-----|
A|---------------------------------|---------------------------------|
E|---------------------------------|---------------------------------|
   1 + + + 2 + + + 3 + + + 4 + + +   1 + + + 2 + + + 3 + + + 4 + + +

G|---------9-------9---9---9---9---|---------------------------------|
D|---------------------------------|---------12----12--12----12------|
A|---------------------------------|---------------------------------|
E|-8-------------8---8---8---8-----|-10----10--------10--10----1010--|
   1 + + + 2 + + + 3 + + + 4 + + +   1 + + + 2 + + + 3 + + + 4 + + +

G|-19------19----19----21----19----|-14------1417/-19--17--14--17----|
D|-0-------0-----0-----0-----0-----|-0-------0-0---0---0---0---0-----|
A|---------------------------------|---------------------------------|
E|---------------------------------|---------------------------------|
   1 + + + 2 + + + 3 + + + 4 + + +   1 + + + 2 + + + 3 + + + 4 + + +

G|---------9-------9---9---9---9---|---------------------------------|
D|---------------------------------|---------------------------------|
A|---------------------------------|-----------------5-------7-------|
E|-8-------------8---8---8---8-----|-10----1010----------------------|
   1 + + + 2 + + + 3 + + + 4 + + +   1 + + + 2 + + + 3 + + + 4 + + +

VERSE

G|---------------------------------|---------------------------------|
D|---------------------------------|---------------------------------|
A|-8-----x-8---8-------------------|-3/5---5-5---5-5---5-8---5-------|
E|---------------5---x-5-----x-8---|-----------------------------8---|
   1 + + + 2 + + + 3 + + + 4 + + +   1 + + + 2 + + + 3 + + + 4 + + +

G|---------------------------------|---------------------------------|
D|---------------------------------|-------------------7---5---------|
A|-8-----x-8---8-------------------|---5---5-5---5-5-----------8-5---|
E|---------------5---x-5-----x-8---|-8-------------------------------|
   1 + + + 2 + + + 3 + + + 4 + + +   1 + + + 2 + + + 3 + + + 4 + + +

GUITAR SOLO 3

G|-19------19----19----19----17----|-14------14----14----14----14----|
D|-0-------0-----0-----0-----0-----|-0-------0-----0-----0-----0-----|
A|---------------------------------|---------------------------------|
E|---------------------------------|---------------------------------|
   1 + + + 2 + + + 3 + + + 4 + + +   1 + + + 2 + + + 3 + + + 4 + + +

G|---------9-------9---9---9---9---|---------------------------------|
D|---------------------------------|---------12------12--12----12----|
A|---------------------------------|---------------------------------|
E|-8-------------8---8---8---8-----|-10----10------10--10----10--10--|
   1 + + + 2 + + + 3 + + + 4 + + +   1 + + + 2 + + + 3 + + + 4 + + +

G|-19------19----19----21----17----|-14------1417/-19--17--19--17----|
D|-0-------0-----0-----0-----0-----|-0-------0-0---0---0---0---0-----|
A|---------------------------------|---------------------------------|
E|---------------------------------|---------------------------------|
   1 + + + 2 + + + 3 + + + 4 + + +   1 + + + 2 + + + 3 + + + 4 + + +

G|---------9-------9---9---9---9---|---------------------------------|
D|---------------------------------|---------12----12--12------12----|
A|---------------------------------|---------------------------------|
E|-8-------------8---8---8---8-----|-10----10--------10--10--10--10--|
   1 + + + 2 + + + 3 + + + 4 + + +   1 + + + 2 + + + 3 + + + 4 + + +

G|-19------19----19----21----17----|-14------1417/-19--17--19--17-14-|
D|-0-------0-----0-----0-----0-----|-0-------0-0---0---0---0---0--0--|
A|---------------------------------|---------------------------------|
E|---------------------------------|---------------------------------|
   1 + + + 2 + + + 3 + + + 4 + + +   1 + + + 2 + + + 3 + + + 4 + + +

G|---------9-------9---9---9---9---|-----------------9---------------|
D|---------------------------------|---------12----------1212--12----|
A|---------------------------------|---------------------------------|
E|-8-------------8---8---8---8-----|-10----10------10--10--10--10----|
   1 + + + 2 + + + 3 + + + 4 + + +   1 + + + 2 + + + 3 + + + 4 + + +

G|-19------19----19----19----17----|-14------1417--17--14--17--14----|
D|-0-------0-----0-----0-----0-----|-0-------0-0---0---0---0---0-----|
A|---------------------------------|---------------------------------|
E|---------------------------------|---------------------------------|
   1 + + + 2 + + + 3 + + + 4 + + +   1 + + + 2 + + + 3 + + + 4 + + +

G|---------9-------10--9-----------|---------------------------------|
D|-------------------------10------|---------------------------------|
A|---------------------------------|---------------------------------|
E|-8-----8-------8-----8-8---------|-10------------------------------|
   1 + + + 2 + + + 3 + + + 4 + + +   1 + + + 2 + + + 3 + + + 4 + + +
comments
print report bad tab
1 comment total.
0 reply
mesias049 wrote on March 13 2014, 07:44 am

perfect. THUMBS UP!

I want to post or [tab]
guest
You may want to rate the tab now too:
select rating
Please do not post tabs as comments. Select "correction" instead!