Oops, an error
Loading. Please wait.

Stadium Arcadium - Jupiter Bass Tab

ver1
ver1

Album

Interactive

More versions @911Tabs.com
45,812 views 97 this week
31 commentsread comments
1 2 3 4 5
excellent!
x 69
Autoscroll
+/-
esc
set tempo
stop
Contributor
Hey! There's an official Ultimate Guitar app which is ideal
for learning songs when you're away from computer. Get the app
WARNING: You are trying to view
                                    content from Ultimate-Guitar.com
                                    in an unauthorized application,
                                    which is prohibited.

                                    Please use an official Ultimate
                                    Guitar Tabs application for iPhone,
                                    iPad or Android to access legitimate
                                    chords, guitar, bass, and drum tabs
                                    from Ultimate-Guitar.com database.

                                    Type "ultimate guitar tabs" in Apple
                                    App Store's or Android Market's
                                    search to find the application.
Artist: Red Hot Chili Peppers
Album: Stadium Arcadium -> Jupiter CD
Bassist: Flea

Tabbed By: Marcos Prieto (marcrow_ps@yahoo.es)

It was so hard make this tab, by finally I finished it and... here 
is!

It has been possible thanks to the aid of a pluggin that slow down 
the song but keep the pitch, what help me to listen better each note. 
I too use this tool for play some songs, i'm not Flea, sometimes he 
plays very fast ;)

The chords over the tab are only a reference, for example, if the
guitar plays C7b9 I put 'C', anyway its all you need to know about the
chord, major or minor.

I dedicate this tab to all the bass and guitar players who make an 
great effort creating good tabs.

If you see any mistake please tell me, send a message or e-mail.

Enjoy!

EDIT: 02-Sept-2006: I made some changes in the "Hey" verse, thanks to 
Etienne.

Notation legend:

  \ | /
    3   -> triplet, 3 notes in 2 beats.
    x   -> mute.
    \   -> slide up.     \   It can be after or before the note, like 1h3,
    /   -> slide down.    |  but if there's no enought space it can be 
    h   -> hammer on.     |  over or down, like G|-13-...
    p   -> pull off.     /                      D|--h-...
    ~   -> let ring.
    S   -> slap.
    P   -> pop.
    + + -> the rhythm of the song, generally 4x4. If there are 2 digits notes
           or there's no enough space, I lengthen it, 
           from (+   +   ) to (+       +      ) 
    |·------·| -> repeat this a number of times, for example |·3-3-3-3·| x4
                  repeats 3-3-3-3 four times.


STADIUM ARCADIUM -Jupiter CD-:

1.  Dani California
2.  Snow ((Hey Oh))
3.  Charlie
4.  Stadium Arcadium
5.  Hump De Bump
6.  She's Only 18
7.  Slow Cheetah
8.  Torture Me
9.  Strip My Mind
10. Especially In Michigan
11. Warlocks
12. C'mon Girl
13. Wet Sand
14. Hey


**********************************************************************
  -   -   -   -   -    ·+--------------------+· -   -   -   -   -   -
 / \ / \ / \ / \ / \ / +| 1. DANI CALIFORNIA |+  \ / \ / \ / \ / \ / \
-   -   -   -   -   -  ·+--------------------+·   -   -   -   -   -
**********************************************************************

Intro:

  Am      G        Dm      Am       Am      G        Dm      Am       
  +   +   +   +    +   +   +   +    +   +   +   +    +   +   +   +    
G|----------------|----7-----------|----------------|----7-----------|
D|----7-------5-3-|------x/7-5-----|----7-------5-3-|---------h-h-h--|
A|----------------|5-5---------7-5-|----------------|5-5----0030507--|
E|5-5----53-3-----|----------------|5-5----53-3-----|---------------8|

Verse 1:

  Am      G        Dm      Am       Am      G        Dm      Am       
  +   +   +   +    +   +   +   +    +   +   +   +    +   +   +   +    
G|----------------|----7-----------|----------------|----7-----------|
D|----7-------5-3-|------x/7-5-----|----7-------5-3-|----------5-----|
A|----------------|5-5---------7-5-|----------------|5-5----/7---75--|
E|5-5----53-3-----|----------------|5-5----53-3-----|--------------8-|

  Am      G        Dm      Am       Am      G        Dm      Am       
  +   +   +   +    +   +   +   +    +   +   +   +    +   +   +   +    
G|----------------|----7-----5-----|----------------|----7-----------|
D|----7-------5-3-|------x/7-----5-|----7-------5-3-|-------/7-5-----|
A|----------------|5-5---------57--|----------------|5-5---------7-5-|
E|5-5----53-3-----|----------------|5-5----53-3-----|----------------|

  Am      G        Dm      Am       Am      G        Dm      Am       
  +   +   +   +    +   +   +   +    +   +   +   +    +   +   +   +    
G|----------------|----7-----------|----------------|----7-----------|
D|----7-------5-3-|------x/7-5-----|----7-------5-3-|-------/7-5---5-|
A|----------------|5-5---------7-5-|----------------|5-5---------57-7|
E|5-5----53-3-----|----------------|5-5----53-3-----|----------------|

  Am      G        Dm      Am       Am      G        Dm
  +   +   +   +    +   +   +   +    +   +   +   +    +   +   +   +    +   +   +   +    
G|----------------|----7-----------|----------------|----------------|----------------|
D|----7-------5-3-|------x/7-5-----|----7-------5-x3|----------------|----------------|
A|----------------|5-5---------7-5-|----------------|5---5--5555-5--5|555-5--55~------|
E|5-5-----3-3-----|----------------|5-5-----3-3-----|----------------|----------------|

Chorus 1:
 
  F       C        Dm      G          
  +   +   +   +    +   +   +   +    
G|----------------|----------------|
D|----------------|----------------|
A|---------03---30|3/555-----------|
E|1-1-1-----------|----------53----| x3

  F       C        Dm
  +   +   +   +    +   +   +   +    +   +   +   +   
G|----------------|----------------|----------------|
D|----------------|----------------|----------------|
A|---------03---30|3/555---5-55----|5-55----5-55----|
E|1-1-1-----------|----------------|----------------|

Verse 2:

  Am      G        Dm      Am       Am      G        Dm      Am
  +   +   +   +    +   +   +   +    +   +   +   +    +   +   +   +    
G|----------------|----7-----------|----------------|----7-----------|
D|----7-------553-|------x/7-5-----|----7-------553-|----------------|
A|----------------|5-5---------7-5-|----------------|5-5-----0305075-|
E|5-5-----3-3-----|----------------|5-5-----3-3-----|---------------8|

  Am      G        Dm      Am       Am      G        Dm      Am
  +   +   +   +    +   +   +   +    +   +   +   +    +   +   +   +    
G|----------------|----7-----------|----------------|----7-----------|
D|----7-------5-3-|------x/7-5-----|----7-------5-3-|----------5-----|
A|----------------|5-5---------7-5-|----------------|5-5---5/7---5---|
E|5-5----53-3-----|----------------|5-5----53-3-----|--------------8-|

  Am      G        Dm      Am       Am      G        Dm
  +   +   +   +    +   +   +   +    +   +   +   +    +   +   +   +    +   +   +   +    
G|----------------|----7-----------|----------------|----------------|----------------|
D|----7-------5-3-|------x/7-5-----|----7-------5-53|----------------|----------------|
A|----------------|5-5---------7-5-|----------------|5---5--5555-5--5|555-5--55~------|
E|5-5----53-3-----|----------------|5-5-----3-3-----|----------------|----------------|

Chorus 2:

  F       C        Dm      G 
  +   +   +   +    +   +   +   +    
G|----------------|----------------|
D|----------------|----------------|
A|---------03---30|3/555-----------|
E|1-1-1-----------|----------53----| x3

  F       C        Dm
  +   +   +   +    +   +   +   +    +   +   +   +   
G|----------------|----------------|----------------|
D|----------------|----------------|----------------|
A|---------03---30|3/555---5-55----|5-55----5-555-5-|
E|1-1-1-----------|----------------|----------------|

Bridge:

  Bm               G       F#m      Bm               G       F#m
  +   +   +   +    +   +   +   +    +   +   +   +    +   +   +   + 
G|----4---4-4-----|----------------|----4-4---4-----|----------------|
D|-----4---4--424-|5-505--04-402---|-----4-4-4--424-|5-505--044402---|
A|2-2----2--------|-------------4--|2-2-----2-------|-------------4--|
E|----------------|----------------|----------------|----------------|

  Bm               G       F#m      Bm               Bm
  +   +   +   +    +   +   +   +    +   +   +   +    +   +   +   + 
G|----4-4---4-----|----------------|----4-4---4-----|----------------|
D|-----4-4-4--424-|5-505--04-402---|-----4-4-4------|------------2---|
A|2-2-----2-------|-------------4--|2-2-----2-------|2-2-----2-5-----|
E|----------------|----------------|----------------|--------------5-|

Verse 3:

  Am      G        Dm      Am       Am      G        Dm      Am 
  +   +   +   +    +   +   +   +    +   +   +   +    +   +   +   +    
G|----------------|----7-----------|----------------|----7---5-7-5---|
D|----7-------5-3-|-------/7-5-----|----7-------5-3-|------57-----757|
A|----------------|5-5---------7-5-|----------------|5-5-------------|
E|5-5----53-3-----|----------------|5-5----53-3-----|----------------|

  Am      G        Dm      Am       Am      G
  +   +   +   +    +   +   +   +    +   +   +   +       
G|----------------|----7-----------|----------------|
D|----7-------5-3-|-------/7-5--5--|----7---------53|
A|----------------|5-5---------7-5-|----------------|
E|5-5----53-3-----|----------------|5-5----53-3-----|

  Dm                                Em               Em
  +   +   +   +    +   +   +   +    +   +   +   +    +   +   +   +    
G|----------------|----------------|9-9-9--99-9-9-9-|----------------|
D|----------------|----------------|----------------|----------------|
A|5---5--55-5-5--5|555-5--5555-5-x-|----------------|----------------|
E|----------------|----------------|----------------|0-0-0-0-0-------|

Chorus 3:

  F       C        Dm      G  
  +   +   +   +    +   +   +   +    
G|----------------|----------------|
D|----------------|----------------|
A|---------03---30|3/555-----------|
E|1-1-1-----------|----------53----| x3

  F       C        Dm 
  +   +   +   +    +   +   +   +    +   +   +   +   
G|----------------|----------------|----------------|
D|----------------|----------------|----------------|
A|---------03---30|3/555---5-55----|5-55----5-55----|
E|1-1-1-----------|----------------|----------------|

  F       C        Dm      G  
  +   +   +   +    +   +   +   +    
G|----------------|----------------|
D|----------------|----------------|
A|---------03---30|3/555-----------|
E|1-1-1-----------|----------53----| x3

  F       C        Dm
  +   +   +   +    +   +   +   +    +   +   +   +   
G|----------------|----------------|----------------|
D|----------------|----------------|---------7-5----|
A|---------03---30|3/555---5-55----|5-55----5----75-|
E|1-1-1-----------|----------------|---------------8|

Ending/Solo:

  F       C        Dm      G        F       C        Dm      G
  +   +   +   +    +   +   +   +    +   +   +   +    +   +   +   +    
G|----------------|----------------|----------------|----------------|
D|----------------|----------------|----------------|----------------|
A|---------03-3-3-|3/555-----------|---------03-3-3-|3/555585--------|
E|1-1---1---------|--------3-3-3-3-|1-1---1---------|---------3333---|

  F       C        Dm      G        F       C        Dm
  +   +   +   +    +   +   +   +    +   +   +   +    +   +   +   +    +   +   +   +    
G|----------------|----------------|----------------|----------------|-------575-75---|
D|----------------|----------------|----------------|----------------|-----57---7--7--|
A|---------03-3-3-|3/555-----------|---------03-3-3-|3/555---5-55----|5-55----------8-|
E|1-1---1---------|--------3-3-3-3-|1-1---1---------|----------------|----------------|

  F       C        Dm      G        F       C        Dm      G
  +   +   +   +    +   +   +   +    +   +   +   +    +   +   +   +    
G|----------------|----------------|----------------|----------------|
D|----------------|----------------|----------------|----------------|
A|---------03-3-3-|3/555-55--------|---------03-3-3-|3/555555--------|
E|1-1---x1--------|----------333---|1-1---x1--------|---------3333---|
         P

  F       C        Dm      G        F
  +   +   +   +    +   +   +   +    +   +   +   +    +   +   +   +    
G|----------------|----------------|----------------|----------------|
D|----------------|--------7-5-----|----------------|----------------|
A|---------03-3-3-|3/55-585----85--|----------------|----------0-1-2-|
E|1-1-1-x1--------|--------------8-|1-1-1-1-1-1-1-1-|1-1-1-1-1-------|

  C                                 Dm
  +   +   +   +    +   +   +   +    +   +   +   +    +   +   +   +    
G|----------------|2--3--4--5--5---|----------------|----------------|
D|----2--3--4--5--|----------------|----------------|----------------|
A|3-3--3--3--3--3-|-3--3--3--------|5~--------------|----------------|
E|----------------|----------------|----------------|----------------|


NOTE:

You can play the chorus like this

A)                                       B)
  +   +   +   +    +   +   +   +    
G|----------------|----------------|     G|----------------|----------------|
D|---------*------|----------------|     D|---------*------|----------------|
A|---------03---30|3/555-----*-----| or  A|---------x3---30|3/555-----*-----|
E|1-1-1-----------|----------53----|     E|1-1-1-----------|----------x3----|
                             ^
                             |
                              \_ _ very quickly



**********************************************************************
  -   -   -   -   -    ·+--------------------+· -   -   -   -   -   -
 / \ / \ / \ / \ / \ / +| 2. SNOW ((HEY OH)) |+  \ / \ / \ / \ / \ / \
-   -   -   -   -   -  ·+--------------------+·   -   -   -   -   -   
**********************************************************************

I recommend to use a pick in the chorus.

Verse 1 (0:10):

  G#m              B                G#m              B
  +   +   +   +    +   +   +   +    +   +   +   +    +   +   +   +    
G|----------------|----------------|----------------|----------------|
D|----------------|----------------|----------------|----------------|
A|------467-------|------679-------|------467-------|------679-------|
E|4---------------|7---------------|4---------------|7-----------7---|

  G#m              B                G#m              B
  +   +   +   +    +   +   +   +    +   +   +   +    +   +   +   +    
G|----------------|----------------|----------------|----------------|
D|----------------|----------------|----------------|------------6\4-|
A|------467-------|------679-------|------467-------|------679-------|
E|4---------------|7---------------|4---------------|7---------------|

  G#m              B                G#m              B
  +   +   +   +    +   +   +   +    +   +   +   +    +   +   +   +    
G|----------------|----------------|----------------|----------------|
D|----------------|----------------|----------------|----------------|
A|------467-------|------679-------|------467-------|------679-------|
E|4---------------|7---------------|4---------------|7-----------7-6-|

  G#m              B                G#m              B
  +   +   +   +    +   +   +   +    +   +   +   +    +   +   +   +    
G||----------------|----------------|----------------|----------------||
D|·----------------|----------------|----------------|----------------·|
A|·----4-6-7---6-4-|----6-7-9-------|----4-6-7---6-4-|----------------·|
E||4---------------|7-----------7-6-|4---------------|7---6-4-2---2---|| x2

  G#m              B                G#m              B
  +   +   +   +    +   +   +   +    +   +   +   +    +   +   +   +    
G|----------------|----------------|----------------|----------------|
D|----------------|----------------|----------------|----------------|
A|------467-------|------679-------|------467-------|------679-------|
E|4---------------|7---------------|4---------------|7-----------x6--|

  G#m              B                G#m              B
  +   +   +   +    +   +   +   +    +   +   +   +    +   +   +   +    
G|----------------|----------------|----------------|----------------|
D|----------------|----------------|----------------|----------------|
A|------467-------|------679-------|------467-------|------679--/11\-|
E|4---------------|7---------------|4---------------|7---------------|

  G#m              B                G#m              B
  +   +   +   +    +   +   +   +    +   +   +   +    +   +   +   +    
G|----------------|----------------|----------------|----------------|
D|----------------|----------------|----------------|----------------|
A|----4-6-7---6-4-|----6-7-9-------|----4-6-7---6-4-|----------------|
E|4---------------|7-----------7-6-|4---------------|7---6-4-2--x2-2-|

  G#m              B                G#m              B
  +   +   +   +    +   +   +   +    +   +   +   +    +   +   +   +    
G|----------------|----------------|----------------|----------------|
D|----------------|----------------|----------------|----------------|
A|----4-6-7---6-4-|----6-7-9-------|----4-6-7---6-4-|----------------|
E|4---------------|7-----------7-6-|4---------------|7---6-4-2---2---|

PRECHORUS:

  E                                 G#m
  +   +   +   +    +   +   +   +    +   +   +   +    +   +   +   +    
G|----------------|----------------|----------------|----------------|
D|----------------|----------------|----6-------6---|----6-----------|
A|----7-------7---|----7-------9---|----------------|------------9---|
E|----------------|----------------|----------------|----------------|

  E
  +   +   +   +    +   +   +   +      
G|----------------|----------------|
D|----------------|----------------|
A|----7-------7---|----7--77777777-|
E|----------------|----------------|

CHORUS x4 (with End 1, 1, 2, 3):

   B                                F#m
   +       +       +       +        +       +       +       +
G||11--11--11--x---1111111111--x---|6---6---6---x---6-6-6-6-6---x---|
D|.9---9---9---x---9-9-9-9-9---x---|4---4---4---x---4-4-4-4-4---x---|
A|.--------------------------------|--------------------------------|
E||--------------------------------|--------------------------------|

                                   ____________ End 1 ____________
  C#m                                                             \
  +       +       +       +        +       +       +       +
G|13--13--13--x---1313131313--x---|13--13--13--x---13131313131313x-||
D|11--11--11--x---1111111111--x---|11--11--11--x---11111111111111x-.|
A|--------------------------------|--------------------------------.|
E|--------------------------------|--------------------------------||

  ___________ End 2 _____________     ___________ End 3 _____________
                                 \                                   \
  +       +       +       +           +       +       +       +       
G|1313131313--x---1313--13131313--| G|1313131313--x---1313--1313131313|
D|1111111111--x---1111--11111111--| D|1111111111--x---1111--1111111111|
A|--------------------------------| A|--------------------------------|
E|--------------------------------| E|--------------------------------|

  ___________ End 4 _____________     ___________ End 5 _____________
                                 \                                   \
  +       +       +       +           +       +       +       +         
G|13--13--13--x---1313--13131313--| G|13--13--13--x---1313131313------|
D|11--11--11--x---1111--11111111--| D|11--11--11--x---1111111111------|
A|--------------------------------| A|--------------------------------|
E|--------------------------------| E|--------------------------------|

VERSO 3:

  G#m              B                G#m              B
  +   +   +   +    +   +   +   +    +   +   +   +    +   +   +   +    
G|----------------|----------------|----------------|----------------|
D|----------------|----------------|----------------|----------------|
A|------467-------|------679-------|------467-------|------679-------|
E|4---------------|7---------------|4---------------|7-----------7---|

  G#m              B                G#m              B
  +   +   +   +    +   +   +   +    +   +   +   +    +   +   +   +    
G|----------------|----------------|----------------|----------------|
D|----------------|----------------|----------------|-----------x6-6-|
A|------467-------|------679-------|------467-------|------679-------|
E|4---------------|7---------------|4---------------|7---------------|

  G#m              B                G#m              B
  +   +   +   +    +   +   +   +    +   +   +   +    +   +   +   +    
G|----------------|----------------|----------------|----------------|
D|----------------|----------------|----------------|----------------|
A|------467-------|------679-------|------467-------|------679-------|
E|4---------------|7---------------|4---------------|7-----------764-|

  G#m              B                G#m              B
  +   +   +   +    +   +   +   +    +   +   +   +    +   +   +   +    
G|----------------|----------------|----------------|----------------|
D|----------------|----------------|----------------|----------------|
A|----4-6-7---6-4-|----6-7-9-------|----4-6-7---6-4-|----------------|
E|4---------------|7-----------7-6-|4---------------|7---6-4-2--x2-2-|

  G#m              B                G#m              B
  +   +   +   +    +   +   +   +    +   +   +   +    +   +   +   +    
G|----------------|----------------|----------------|----------------|
D|----------------|----------------|----------------|----------------|
A|----4-6-7---6-4-|----6-7-9-------|----4-6-7---6-4-|----------------|
E|4---------------|7-----------7-6-|4---------------|7---6-4-2---2---|

PRECHORUS:

  E                                 G#m
  +   +   +   +    +   +   +   +    +   +   +   +    +   +   +   +    
G|----------------|----------------|----------------|----------------|
D|----------------|----------------|----6-------6---|----6-----------|
A|----7-------7---|----7-------9---|----------------|------------9---|
E|----------------|----------------|----------------|----------------|

  E
  +   +   +   +    +   +   +   +      
G|----------------|----------------|
D|----------------|----------------|
A|----7-------7---|----7-------7---|
E|----------------|----------------|

CHORUS -> until the end of the song, alternating the Ends, and finishing with:
   
  B                                F#m
  +       +       +       +        +       +       +       +
G|11--11--11--x---1111111111--x---|6---6---6---x---6-6-6-6-6---x---|
D|9---9---9---x---9-9-9-9-9---x---|4---4---4---x---4-4-4-4-4---x---|
A|--------------------------------|--------------------------------|
E|--------------------------------|--------------------------------|

  C#m
  +   +   +   +         
G|----------------|
D|----------------|
A|4~--------------|
E|----------------|



**************************************************************
  -   -   -   -   -    ·+------------+· -   -   -   -   -   -
 / \ / \ / \ / \ / \ / +| 3. CHARLIE |+  \ / \ / \ / \ / \ / \
-   -   -   -   -   -  ·+------------+·   -   -   -   -   -
**************************************************************

Intro:

   +  +  +  +  
G||----------3-||
D|.----3---2---.|
A|.--2---1-----.|
E||1-----------|| x2
   \ | / \ | /
     3     3

Verse_1 x5 (with V. End 1, 2, 1, 1, 1):
                                                      ____V. End 1___
                                                                     \
   Gm
   +   +   +   +    +   +   +   +    +   +   +   +    +   +   +   +    
G||----------------|----------------|----------------|----------------||
D|·----------------|----------------|----------------|----------------·|
A|·------------1-0-|--------1---310-|------------1-0-|--------103-4-5-·|
E||3-xx1-xx3-x-----|xx1-3-xx-x-3----|3-xx1-xx3-x-----|xx1-3--3--------||

  ____V. End 2___      ____V. End 3___      ____V. End 4___
                 \                    \                    \
  +   +   +   +        +   +   +   +        +   +   +   +
G|----------------|   |----------------|   |----------------|
D|----------------|   |-------0503-----|   |----------------|
A|--------103--01-|   |-------------x1-|   |--------103--03-|
E|xx1-3--3--------|   |xx1-3-----------|   |xx1-3--3--------|

  ____V. End 5___
                 \
  +   +   +   +
G|----------------|
D|--------3-------|
A|-------5-53-1-0-|
E|xx1-3-x---------|

Pre-Chorus:

   Cm              Bb                F               Eb
   +       +       +       +         +       +       +       +
G||--------8---------------7--------|--------14--------------12-------||
D|·---------------------------------|---------------------------------·|
A|·---------------------------------|---------------------------------·|
E||8---------------6---6--------/---|13----------\---11--11-------10--|| x3

  Cm              Bb                F               Eb
  +       +       +       +         +       +       +       +
G|--------8---------------7--------|--------14--------------14-------|
D|---------------------------------|---------------------------------|
A|---------------------------------|---------------------------------|
E|8---------------6---6--------/---|13--------------13--13-------\---|

  D
  +       +       +       +
G|--------11--------------11-------|
D|---------------------------------|
A|---------------------------------|
E|10--10------10--10--10------10\--|

Verse_2 (with V. End 1, 1, 3, 1, 4):

Pre-Chorus.

Chorus 1:

   D#                               Fm
   +       +       +       +        +       +       +       +   
G||--------------------------------|--------------------------------|
D|.--------------------------8-----|-h------------------------10----|
A|.6---6-6-6---6-6---------6-------|68--8-8-8---8-8---------8-------|
E||------------------6-6h8---------|------------------6-6h8---------|

  Gm
  +       +       +       +        +       +       +       +   
G|--------------------------------|--------------------------------||
D|-/------------------------12----|--------------------------------.|
A|810-101010--1010--10101010------|10--101010--1010--101010108-----.|
E|--------------------------------|--------------------------------|| x2

  D#                               Fm
  +       +       +       +        +       +       +       +   
G|--------------------------------|--------------------------------|
D|--------------------------8-----|--------------------------------|
A|6---6-6-6---6-6---------6-------|6h8-8-8-8---8-8---8---8-8-------|
E|------------------6-6h8---------|------------------------------1-|

Verse_3 x4 (with V. End 5, 2, 1, 1).

Pre-Chorus.

Chorus 2:

  D#                               Fm
  +       +       +       +        +       +       +       +   
G|--------------------------------|--------------------------------|
D|--------------------------8-----|-h------------------------10----|
A|6---6-6-6---6-6---------6-------|68--8-8-8---8-8---------8-------|
E|------------------6-6h8---------|------------------6-6h8---------|

  Gm
  +       +       +       +        +       +       +       +   
G|--------------------------------|--------------------------------|
D|-/------------------------12----|--------------------------------|
A|810-101010--1010--10101010------|10--101010--1010--101010108-----|
E|--------------------------------|--------------------------------|

  D#                               Fm
  +       +       +       +        +       +       +       +   
G|--------------------------------|--------------------------------|
D|--------------------------8-----|-h------------------------10----|
A|6---6-6-6---6-6---------6-------|68--8-8-8---8-8---------8-------|
E|------------------6-6h8---------|------------------6-6h8---------|

  Gm
  +       +       +       +        +       +       +       +   
G|--------------------------------|--------------------------------|
D|-/------------------------------|--------------------8-----------|
A|810-101010--1010--101010108-----|10--101010--108---10----108-----|
E|--------------------------------|--------------------------------|

  D#                               Fm
  +       +       +       +        +       +       +       +   
G|--------------------------------|--------------------------------|
D|--------------------------8-----|-h------------------------10----|
A|6---6-6-6---6-6---------6-------|68--8-8-8---8-8---------8-------|
E|------------------6-6h8---------|--------------------6h8---------|

  Gm
  +       +       +       +        +       +       +       +   
G|--------------------------------|--------------------------------|
D|-/------------------------12----|1210------10--------1210-----/12|
A|810-101010--1010--10101010------|------13------13--------13108---|
E|--------------------------------|--------------------------------|

  D#                               Fm
  +       +       +       +        +       +       +       +   
G|--------------------------------|--------------------------------|
D|--------------------------8-----|-h------------------------10----|
A|6---6-6-6---6-6---------6-------|68--8-8-8---8-8---------8-------|
E|------------------6-6h8---------|------------------6-6h8---------|

  Gm
  +       +       +       +        +       +       +       +   
G|--------------------------------|------12--12-10-8---------------|
D|-/------------------------12----|--------------------108-8-------|
A|810-101010--1010--10101010------|10--10----------------p---10----|
E|--------------------------------|--------------------------------|
                                         P   P  P  P    P  P

  D#                               Fm
  +       +       +       +        +       +       +       +   
G|--------------------------------|--------------------------------|
D|--------------------------8-----|-h------------------------10----|
A|6---6-6-6---6-6---------6-------|68--8-8-8---8-8---------8-------|
E|------------------6-6h8---------|--------------------6h8---------|

  Gm
  +       +       +       +        +       +       +       +   
G|--------------------------------|--------------------------------|
D|-/------------------------12----|--------1210------1210--10------|
A|810-101010--1010--10101010------|10--1010------13------10--8-----|
E|--------------------------------|--------------------------------|

  D#                               Fm
  +       +       +       +        +       +       +       +   
G|--------------------------------|--------------------------------|
D|--------------------------8-----|-h------------------------10----|
A|6---6-6-6---6-6---------6-------|68--8-8-8---8-8---------8-------|
E|------------------6-6h8---------|------------------6-6h8---------|

  Gm
  +       +       +       +        +       +       +       +   
G|--------------------------------|-h------------------------------|
D|-/------------------------12----|810-108----810--10--8-----------|
A|810-101010--1010--10101010------|------------------------108-----|
E|--------------------------------|--------------------------------|

  D#                               Fm
  +       +       +       +        +       +       +       +   
G|--------------------------------|--------------------------------|
D|--------------------------------|-h------------------------------|
A|6---6-6-6---6-6---6-6-------6---|68--8-8-8---8-8---------6---8---|
E|------------------------6h8-----|------------------6-6h8---------|

  Gm
  +       +       +       +        +       +       +       +   
G|--------------------------------|--h-10--12----10----------------|
D|-/------------------------12---8|1012--12----12----1210--108-----|
A|810-101010--1010--108h1010------|--------------------------------|
E|--------------------------------|--------------------------------|

  D#                               Fm
  +       +       +       +        +       +       +       + 
G|--------------------------------|--------------------------------|
D|--------------------------------|-h------------------------------|
A|6---6-6-6---6-6---------6---6-6-|68--8-8-8---8-8----8-8--8-------|
E|------------------6-6h8---------|----------------------------8---|

  Gm
  +       +       +       +        +       +       +       + 
G|--------------------------------|--------------------------------|
D|--------------------------------|--------------------------------|
A|--------------------------------|--------------------------------|
E|3~------------------------------|--------------------------------|


***********************************************************************
  -   -   -   -   -    ·+---------------------+· -   -   -   -   -   -
 / \ / \ / \ / \ / \ / +| 4. STADIUM ARCADIUM |+  \ / \ / \ / \ / \ / \
-   -   -   -   -   -  ·+---------------------+·   -   -   -   -   -   
***********************************************************************

Verse 1:

(0:17)

   F#m                               A
   +   +   +   +    +   +   +   +    +   +   +   +    +   +   +   +    
G||----------------|----------------|----------------|----------------|
D|·----------------|----------------|----------------|----------------|
A|·----------------|----------------|----------------|----------------|
E||2~--------------|----------------|5~--------------|----------------|

  F#m                               A                E
  +   +   +   +    +   +   +   +    +   +   +   +    +   +   +   +    
G|----------------|----------------|----------------|----------------||
D|----------------|----------------|----------------|----------------·|
A|----------------|----------------|----------------|----------------·|
E|2~--------------|----------------|5~--------------|0~--------------|| x2

  F#m                               A
  +   +   +   +    +   +   +   +    +   +   +   +    +   +   +   +    
G|----------------|----------------|----------------|----------------|
D|----------------|----------------|----------------|----------------|
A|----------------|----------------|----------------|----------------|
E|2~--------------|----------------|5~--------------|----------------|

  F#m                               A                E
  +   +   +   +    +   +   +   +    +   +   +   +    +   +   +   +    
G|----------------|----------------|----------------|----------------|
D|----------------|----------------|----------------|----------------|
A|----------------|----------------|----------------|----------------|
E|2~--------------|----------------|5~--------------|0~--------------|

Chorus 1:

  Bm                                D
  +   +   +   +    +   +   +   +    +   +   +   +    +   +   +   +    
G|----------------|----------------|----------------|----------------|
D|----------------|----------------|----------------|----------------|
A|2--22-2--22-2---|2--22-2--22-4---|5--55-5--55-5-5-|5--55-5---5-4---|
E|----------------|----------------|----------------|----------------|

  A                                 E
  +   +   +   +    +   +   +   +    +   +   +   +    +   +   +   +    
G|----------------|----------------|----------------|----------------|
D|----------------|----7-----------|----------------|----------------|
A|----------------|---7------7-----|------7-----7-7-|------7--77-7-5-|
E|5--55-5--55-5-7-|5-----------5---|0--00-----0-----|0--00-----------|

  Bm                                D
  +   +   +   +    +   +   +   +    +   +   +   +    +   +   +   +    
G|----------------|4---------------|----------------|----------------|
D|---------------4|----------------|----------------|----------------|
A|2--22-2--22-2-2-|------2---2-4---|5-------5---5-5-|5--55-5---5-4-4-|
E|----------------|----------------|---5--2---------|----------------|

  A                                 E
  +   +   +   +    +   +   +   +    +   +   +   +    +   +   +   +    
G|----------------|----------------|----------------|----------------|
D|----------------|----------------|----------------|----------------|
A|----------------|----------------|----------------|7--77-7--77-7-7\|
E|5--55-5--55-5-7-|5--55-5---5-4---|0--00-0--00-0-0-|----------------|

Verse 2:

   F#m                               A
   +   +   +   +    +   +   +   +    +   +   +   +    +   +   +   +    
G||----------------|----------------|----------------|----------------|
D|·----------------|----------------|----------------|----------------|
A|·----------------|----------------|----------------|----------------|
E||2~--------------|----------------|5~--------------|----------------|

  F#m                               A                E
  +   +   +   +    +   +   +   +    +   +   +   +    +   +   +   +    
G|----------------|----------------|----------------|----------------||
D|----------------|----------------|----------------|----------------·|
A|----------------|----------------|----------------|----------------·|
E|2~--------------|----------------|5~--------------|0~--------------|| x2

  F#m                               A
  +   +   +   +    +   +   +   +    +   +   +   +    +   +   +   +    
G|----------------|----------------|----------------|----------------|
D|----------------|----------------|----------------|----------------|
A|----------------|----------------|----------------|----------------|
E|2~--------------|----------------|5~--------------|------------4---|

  F#m                               A                E
  +   +   +   +    +   +   +   +    +   +   +   +    +   +   +   +    
G|----------------|----------------|----------------|----------------|
D|----------------|----------------|----------------|----------------|
A|----------------|----------------|----------------|----------------|
E|2~--------------|----------------|5~--------------|0---0----00-0-0-|

Chorus 2:

  Bm                                D
  +   +   +   +    +   +   +   +    +   +   +   +    +   +   +   +    
G|----------------|----------------|----------------|----------------|
D|----------------|----------------|----------------|----------------|
A|2--22-2--22-2---|2--22-2---2-4---|5-------5---5-5-|5--55-5---5-4---|
E|----------------|----------------|---5--2---------|----------------|

  A                                 E
  +   +   +   +    +   +   +   +    +   +   +   +    +   +   +   +    
G|----------------|----------------|----------------|----------------|
D|----------------|7---------------|----------------|----------------|
A|----------------|----------------|------7-----7-7-|----7---7-7-5-5-|
E|5---5-5---5-5-5-|------5---5-4---|0--00-----0-----|0--0------------|

  Bm                                D
  +   +   +   +    +   +   +   +    +   +   +   +    +   +   +   +    
G|----------------|4---------------|----------------|----------------|
D|--------------4-|----------------|----------------|----------------|
A|2--22-2--22-2---|------2---2-4---|5--55-5--55-5-7-|5--55-5-5-5-4---|
E|----------------|----------------|----------------|----------------|

  A                                 E
  +   +   +   +    +   +   +   +    +   +   +   +    +   +   +   +    
G|----------------|----------------|----------------|----------------|
D|----------------|----------------|----------------|----------------|
A|----------------|----------------|------7--77-----|--7-7---7---7---|
E|5---5-5---5-5-5-|5---5-5---5-4-4-|0--00-------0-0-|0-----0---0---0-|

Bridge:

  F#m             G#m              A               Bm
  +       +       +       +        +       +       +       +  
G|--------------------------------|-----------------/--------------|
D|4-------4-4-4---6---6-6-6-6-6---|7-----7-7-7-7---911-11111111----|
A|--------------------------------|--------------------------------|
E|--------------------------------|--------------------------------|

  F#m             G#m              A               Bm
  +       +       +       +        +       +       +       +  
G|--------------------------------|-----------------/--------------|
D|4-------4-4-4---6-----6-6-6-6---|7---7-7-7-7-7---911-11111111----|
A|--------------------------------|--------------------------------|
E|--------------------------------|--------------------------------|

  F#m             G#m              A               Bm
  +       +       +       +        +       +       +       +  
G|--------------------------------|-----------------/--------------|
D|4---4-4-4-4-4---6---6-6-6-6-6---|7---7-7-7-7-7---911-1111111111--|
A|--------------------------------|--------------------------------|
E|--------------------------------|--------------------------------|

  F#m             G#m              A               Bm
  +       +       +       +        +       +       +       +  
G|--------------------------------|-----------------/--------------|
D|4---4-4-4-4-4---6---6-6-6-6-6---|7---7-7-7-7-7---911-1111111111--|
A|--------------------------------|--------------------------------|
E|--------------------------------|--------------------------------|

  Bm              C#m              D               E
  +       +       +       +        +       +       +       +  
G|4---4-4---4-4---6-----6-6-6-6---|7---7-7---7-7---911-1111--1111--|
D|--------------------------------|-----------------/--------------|
A|--------------------------------|--------------------------------|
E|--------------------------------|--------------------------------|

  Bm              C#m              D               E
  +       +       +       +        +       +       +       +  
G|4---4-4---4-4---6---6-6-6-6-6---|7---7-7---7-7---911-1111--1111--|
D|--------------------------------|-----------------/--------------|
A|--------------------------------|--------------------------------|
E|--------------------------------|--------------------------------|

  F#m             G#m              A               Bm
  +       +       +       +        +       +       +       +  
G|--------------------------------|-----------------/--------------|
D|4---4-4---4-4---6-----6-6-6-6---|7---7-7---7-7---911-1111111111--|
A|--------------------------------|--------------------------------|
E|--------------------------------|--------------------------------|

  F#m             G#m              A               Bm
  +       +       +       +        +       +       +       +  
G|--------------------------------|-----------------/--------------|
D|4---4-4-4-4-4---6---6-6-6-6-6---|7---7-7-7-7-7---911-1111111111--|
A|--------------------------------|--------------------------------|
E|--------------------------------|--------------------------------|

  C#                                Bm               F#m
  +   +   +   +    +   +   +   +    +   +   +   +    +   +   +   +    
G|----------------|6-66-6----6-5---|4-44-4---44-4---|----------------|
D|----------------|----------------|--------------4-|----------------|
A|4-44-4---44-4-4-|----------------|----------------|2-22-2----2-2-0-|
E|----------------|----------------|----------------|----------------|

Verse 3:

  F#m                               A
  +   +   +   +    +   +   +   +    +   +   +   +    +   +   +   +    
G|----------------|----------------|----------------|----------------|
D|----------------|----------------|----------------|----------------|
A|----------------|----------------|----------------|----------------|
E|2~--------------|----------------|----------------|----------------|

  F#m                               A                E
  +   +   +   +    +   +   +   +    +   +   +   +    +   +   +   +    
G|----------------|----------------|----------------|----------------|
D|----------------|----------------|----------------|----------------|
A|----------------|----------------|----------------|----------------|
E|----------------|----------------|5~--------------|0~--------------|

  F#m                               A
  +   +   +   +    +   +   +   +    +   +   +   +    +   +   +   +    
G|----------------|----------------|----------------|----------------|
D|----------------|----------------|----------------|----------------|
A|----------------|----------------|----------------|----------------|
E|2~--------------|----------------|5~--------------|----------------|

  F#m                               A                E
  +   +   +   +    +   +   +   +    +   +   +   +    +   +   +   +    
G|----------------|----------------|----------------|----------------|
D|----------------|----------------|----------------|----------------|
A|----------------|----------------|----------------|----------------|
E|2~--------------|----------------|5~--------------|0~--------------|

Chorus 3:

  Bm                                D
  +   +   +   +    +   +   +   +    +   +   +   +    +   +   +   +    
G|----------------|----------------|----------------|----------------|
D|----------------|----------------|----------------|----------------|
A|2-----2--22-2-2-|2---2-2---2-4---|5---5-5--55-5-7-|5--55-5---5-4---|
E|----------------|----------------|----------------|----------------|

  A                                 E
  +   +   +   +    +   +   +   +    +   +   +   +    +   +   +   +    
G|----------------|----------------|----------------|----9-7---7-----|
D|----------------|----------------|----------------|--9-----9---9-0-|
A|----------------|----------------|----------7-7---|7---------------|
E|5--55-5--55-5-5-|5-55-5----5-4---|0--00-0-------0-|----------------|

  Bm                                D
  +   +   +   +    +   +   +   +    +   +   +   +    +   +   +   +    
G|----------------|------4---------|----------------|----------------|
D|----------------|-----4----4-----|----------------|----------------|
A|2--22-2--22-2-2-|2-22--------2-4-|5-------5---5-5-|5---5-5---5-5-4-|
E|----------------|----------------|---5--2---------|----------------|

  A                                 E
  +   +   +   +    +   +   +   +    +   +   +   +    +   +   +   +    
G|----------------|----------------|----------------|----------------|
D|----------------|----------------|----------------|----------------|
A|----------------|----------------|------7---------|------7---7-7---|
E|5---5-5--55-5-7-|5---5-5--55-4-4-|0--00-----0-0---|0-0-0---------0-|

  Bm                                D
  +   +   +   +    +   +   +   +    +   +   +   +    +   +   +   +    
G|----------------|----4-----------|----------------|----------------|
D|----------------|---4------------|----------------|----------------|
A|2--22-2--22-2-2-|2-2---2---2-2-4-|5-------5---5-5-|5--55-5--54-5-7-|
E|----------------|----------------|---5--2---------|----------------|

  A                                 E
  +   +   +   +    +   +   +   +    +   +   +   +    +   +   +   +    
G|----------------|----------------|----------------|----------------|
D|----------------|----------------|----------------|----------------|
A|----------------|----------------|------7--77-----|------7-7-7-7-7-|
E|5---5-5--55-5-7-|5---5-5--55-4-4-|0--00-------0-0-|0-0-0-----------|


*******************************************************************
  -   -   -   -   -    ·+-----------------+· -   -   -   -   -   -
 / \ / \ / \ / \ / \ / +| 5. HUMP DE BUMP |+  \ / \ / \ / \ / \ / \
-   -   -   -   -   -  ·+-----------------+·   -   -   -   -   -   
*******************************************************************

Tuning: DADG

Intro:

  G
  +   +   +   +    +   +   +   +
G|----------------|----------------|
D|5-----5-----5---|--5-----5-------|
A|----------------|----------------|
D|----------------|----------------|

Verse 1:

I make a little bend down in all the pull-off from the Verse, and 
if you want you can do a little pop in all the hammer-on and pull-off.

  Dm
  +   +   +   +    +   +   +   +    +   +   +   +    +   +   +   +
G|----------------|----------------|----------------|----------------|
D|0-r---0-r-------|0-r---0-r-30----|0-r---0-r-------|0-r---0-r----03-|
A|----------------|-----------p----|----------------|----------03--h-|
D|0-r---0-r-------|0-r---0-r-------|0-r---0-r-------|0-r---0-r--h----|

  Dm
  +   +   +   +    +   +   +   +    +   +   +   +    +   +   +   +
G|----------------|----------------|----------------|----------50----|
D|0-r---0-r-------|0-r---0-r-30----|0-r---0-r-------|0-r---0-r--p-30-|
A|----------------|-----------p----|----------------|--------------p-|
D|0-r---0-r-------|0-r---0-r-------|0-r---0-r-------|0-r---0-r-------|

  Dm
  +   +   +   +    +   +   +   +    +   +   +   +    +   +   +   +
G|----------------|----------------|----------------|----------------|
D|0-r---0-r-------|0-r---0-r----30-|0-r---0-r-------|0-r---0-r-30-30-|
A|----------------|----------03--p-|----------------|-----------p--p-|
D|0-r---0-r-------|0-r---0-r--h----|0-r---0-r-------|0-r---0-r-0--0--|

Pre-Chorus 1:

  Dm
  +   +   +   +    +   +   +   +    +   +   +   +    +   +   +   +
G||----------------|----------4-5---|----------------|----------4-5-4-||
D|·0-r---0-r-------|0-r---0-r-------|0-r---0-r-------|0-r---0-r-------·|
A|·----------------|----------2-3---|----------------|----------2-3-2-·|
D||0-r---0-r-------|0-r---0-r-0-0---|0-r---0-r-------|0-r---0-r-0-0-0-|| x2

Chorus (replace 2nd time C. End 1 with C. End 2):
                                                      ___C. End 1____
                                                                     \
   Dm               Bb               A       G        Bb      C
   +   +   +   +    +   +   +   +    +   +   +   +    +   +   +   +
G||----75-5--------|----32020----0--|----------------|----------------||
D|·------7-75---5--|---------3--3---|----75------53--|------03------23·|
A|·5-----------8---|1---------------|------75------53|1---13--3---35--·|
D||----------------|----------------|7-------5-------|----------------|| x2

  ___________C. End 2____________
                                 \
  Bb              C
  +       +       +       +
G|----------------------75--------|
D|------------0-3---------765-----|
A|1---1---1-3-----3-----------8---|
D|--------------------------------|

Verse 2:

  Dm
  +   +   +   +    +   +   +   +    +   +   +   +    +   +   +   +
G|----------------|----------------|----------------|----------------|
D|------0-r-------|0-r---0-r----30-|0-r---0-r-------|0-r---0-r-30----|
A|5-r-------------|----------30--p-|----------------|-----------p-30-|
D|------0-r-------|0-r---0-r--p----|0-r---0-r-------|0-r---0-r-----p-|

  Dm
  +   +   +   +    +   +   +   +    +   +   +   +    +   +   +   +
G|----------------|----------------|----------------|----------------|
D|0-r---0-r-------|0-r---0-r-------|0-r---0-r-------|0-r---0-r--h----|
A|----------------|-----------p----|----------------|----------03----|
D|0-r---0-r-------|0-r---0-r-70----|0-r---0-r-------|0-r---0-r-------|

  Dm
  +   +   +   +    +   +   +   +    +   +   +   +    +   +   +   +
G|----------------|----------------|----------------|----------------|
D|0-r---0-r-------|0-r---0-r----30-|0-r---0-r-------|0-r---0-r-3-3-3-|
A|----------------|----------03--p-|----------------|----------------|
D|0-r---0-r-------|0-r---0-r--h----|0-r---0-r-------|0-r---0-r-3-3-3-|

Pre-Chorus 2:

  Dm
  +   +   +   +    +   +   +   +    +   +   +   +    +   +   +   +
G|----------------|----------4-5---|----------------|----------4-5-4-|
D|0-r---0-r-------|0-r---0-r-------|0-r---0-r-------|0-r---0-r-------|
A|----------------|----------2-3---|----------------|----------2-3-2-|
D|0-r---0-r-------|0-r---0-r-0-0---|0-r---0-r-------|0-r---0-r-0-0-0-|

  Dm
  +   +   +   +    +   +   +   +    +   +   +   +    +   +   +   +
G|----------4-5---|----------4-5-4-|----------4-5---|----------4-5-4-|
D|0-r---0-r-------|0-r---0-r-------|0-r---0-r-------|0-r---0-r-------|
A|----------2-3---|----------2-3-2-|----------2-3---|----------2-3-2-|
D|0-r---0-r-0-0---|0-r---0-r-0-0-0-|0-r---0-r-0-0---|0-r---0-r-0-0-0-|

Chorus &

  +   +   +   +
G|----------------|
D|----------------|
A|5-r-------------|
D|----------------|

Percussion part:

(2:21)

  C
  +   +   +   +    +   +   +   +    +   +   +   +    +   +   +   +
G|----------------|----------------|----------------|----------------|
D|----------------|----------------|----------------|----------------|
A|--------3--5----|--3-3-6-3--5----|--3-3-6-3--5----|--3-3-6-3--5----|
D|------0---------|0------0--------|0------0--------|0------0--------|

  C
  +   +   +   +    +   +   +   +    +   +   +   +    +   +   +   +
G|----------------|----------------|----------------|----------------|
D|----------------|----------------|----------------|----------------|
A|3-3-3-3-3--5----|3-3-3-6-3--5----|3-3-3-3-3--5----|3-3-3-0-3--5----|
D|---0---0--------|---0---0--------|---0---0--------|---0------------|

Pre-Chorus 3:

  Dm
  +   +   +   +    +   +   +   +    +   +   +   +    +   +   +   +
G|----------------|----------4-5---|----------------|----------4-5-4-|
D|0-r---0-r-------|0-r---0-r-------|0-r---0-r-------|0-r---0-r-------|
A|----------------|----------2-3---|----------------|----------2-3-2-|
D|0-r---0-r-------|0-r---0-r-0-0---|0-r---0-r-------|0-r---0-r-0-0-0-|

  Dm
  +   +   +   +    +   +   +   +    +   +   +   +    +   +   +   +
G|----------4-5---|----------4-5-4-|----------4-5---|----------5-5-5-|
D|0-r---0-r-------|0-r---0-r-------|0-r---0-r-------|0-r---0-r-------|
A|----------2-3---|----------2-3-2-|----------2-3---|----------3-3-3-|
D|0-r---0-r-0-0---|0-r---0-r-0-0-0-|0-r---0-r-0-0---|0-r---0-r-------|

Chorus (replace 4th time the C. End 1 with C. End 2):
                                                      ___C. End 1____
                                                                     \
   Dm               Bb               A       G        Bb      C
   +   +   +   +    +   +   +   +    +   +   +   +    +   +   +   +
G||----75-5--------|----32020----0--|----------------|----------------||
D|·------7-75---5--|---------3--3---|----75------53--|------03------23·|
A|·5-----------8---|1---------------|------75------53|1---13--3---35--·|
D||----------------|----------------|7-------5-------|----------------|| x4

  ___________C. End 2____________
                                 \
  Bb              C
  +       +       +       +
G|----------------------75--------|
D|------------0-3---------765-----|
A|1---1---1-3-----3-----------8---|
D|--------------------------------|
                        \_____/
                           |
                          Play quickly!

End with this:

  +   +   +   +
G|----------------|
D|----------------|
A|5-r-------------|
D|----------------|


*******************************************************************
  -   -   -   -   -    ·+------------------+·-   -   -   -   -   -
 / \ / \ / \ / \ / \ / +| 6. SHE'S ONLY 18 |+ \ / \ / \ / \ / \ / \
-   -   -   -   -   -  ·+------------------+·  -   -   -   -   -   
*******************************************************************

Verse:

  Dm
  +   +   +   +    +   +   +   +       
G|----3-----3---5-|----3-----3-----|
D|--35-53-35--5---|--35-53-35--5-3-|
A|-5-----5---5----|-5-----5---5----|
E|----------------|----------------|

Chorus:

  Cm      D#       Gm              F
  +   +   +   +    +       +       +       +
G|----------------|--------------------------------|
D|--------/-------|--------------------------------|
A|3---3--3666-666-|--------------------------------|
E|----------------|3-------3-----3/131313--1313\\\-|

  Cm      D#       Gm              F
  +   +   +   +    +       +       +       +
G|----------------|--------------------------------|
D|--------/-------|----------------3-3-------------|
A|3---3--3666-666-|--------------------------------|
E|----------------|3-------3---3-1-----------------|

  Cm      D#       Gm              F
  +   +   +   +    +       +       +       +
G|----------------|--------------------------------|
D|--------/-------|--------------------------------|
A|3---3--3666-666-|--------------------------------|
E|----------------|3-------3-----3/131313--x-13\\\-|

                                    _____ End 1 ___
                                                   \
  Cm      D#       Dm               Dm
  +   +   +   +    +   +   +   +    +   +   +   +
G|----------------|----------------|7-7-7-777-7-7-7-|
D|--------/-------|---------------7|----------------|
A|3---3--3666-666-|5-5-5-5-5-5-5-5-|----------------|
E|----------------|----------------|----------------|

  ____ End 2 ____     ____ End 3 ____
                 \                   \
  Dm                  Dm
  +   +   +   +       +   +   +   +   
G|7-7-7-77777-777-|  |777-7-77~-------|
D|----------------|  |----------------|
A|----------------|  |----------------|
E|----------------|  |----------------|

Solo:

  Cm      Bb       F       Cm       Cm      Bb       F       Cm
  +   +   +   +    +   +   +   +    +   +   +   +    +   +   +   +    
G|----------------|----------------|----------------|----------------|
D|----------------|3---3--3--------|----------------|33--3-/53-------|
A|3---3--3-11-1---|---------33-3--1|3---3-33r11-1---|----------33---1|
E|----------------|-------------13-|----------------|-------------13-|

  Cm      Bb       F       Cm       Cm      Bb       F
  +   +   +   +    +   +   +   +    +   +   +   +    +   +   +   +    
G|----------------|----------3-5---|----------------|----------------|
D|----------------|3---3----5-5-53-|----------------|3---333-33-3333-|
A|3---3--3-11-1---|-------3-------6|3---3-33r11-1--1|----------------|
E|----------------|----------------|----------------|----------------|

Song structure:

Verse (x6).
Chorus (with End 1).
Verse (x5)
Chorus (with End 2).
Solo.
Chorus (with End 3).



*******************************************************************
  -   -   -   -   -    ·+-----------------+· -   -   -   -   -   -
 / \ / \ / \ / \ / \ / +| 7. SLOW CHEETAH |+  \ / \ / \ / \ / \ / \
-   -   -   -   -   -  ·+-----------------+·   -   -   -   -   -   
*******************************************************************

Verse 1:

(0:35)

   A#m     G#       D#      F#
   +   +   +   +    +   +   +   +
G||3-------1-------|----------------||
D|·----------------|1---------------·|
A|·----------------|----------------·|
E||----------------|--------2-------|| x4

  A#m     C#       D#      F#       A#m     C#
  +   +   +   +    +   +   +   +    +   +   +   +
G|----------------|----------------|----------------|
D|----------------|1-------4-------|----------------|
A|1-------4-------|----------------|1-------4-------|
E|----------------|----------------|----------------|

  D#
  +   +   +   +    +   +   +   +
G|----------------|----------------|
D|1---1--1111-1--1|1-1-1--11111111-|
A|----------------|----------------|
E|----------------|----------------|

Chorus 1:

  F#      C#       D#               F#      C#       D#
  +   +   +   +    +   +   +   +    +   +   +   +    +   +   +   +
G|----------------|----------------|----------------|-------6888886--|
D|4-4-------------|1---------------|4-4-------------|----68--/-----8-|
A|--------4-4-----|----1-----------|--------4-4-----|6----h----------|
E|----------------|--------4---2---|----------------|----------------|

  F#      C#       D#               F#      C#       D#
  +   +   +   +    +   +   +   +    +   +   +   +    +   +   +   +
G|----------------|----------------|----------------|----------------|
D|4-4-------------|1---------------|4-4-------------|----------------|
A|--------4-4-----|----1-----------|--------4-4-----|6---6--666666---|
E|----------------|--------4---2---|----------------|----------------|

Verse 2:

  A#m     C#       D#      F#       A#m     C#       D#      F#
  +   +   +   +    +   +   +   +    +   +   +   +    +   +   +   +
G|----------------|----------------|----------------|------------1---|
D|----------------|1-1---134-4-41--|----------------|1-1---134-4--4--|
A|1-1---x14-4---14|--------------4-|1-1---1-4-4---14|----------------|
E|----------------|----------------|----------------|----------------|

  A#m     C#       D#      F#       A#m     C#       D#      F#
  +   +   +   +    +   +   +   +    +   +   +   +    +   +   +   +
G|----------------|----------------|----------------|----------------|
D|----------------|1-----1-4-4-----|----------------|1---1-134-4-31--|
A|1-1---1-4-4---14|------------4---|1-1---1-4-4---1-|--------------4-|
E|----------------|--------------2-|----------------|----------------|

  A#m     C#       D#      F#       A#m     C#
  +   +   +   +    +   +   +   +    +   +   +   +
G|----------------|----------/-----|----------------|
D|----------------|1-1-1-1-4-8-6-4-|----------------|
A|1-1---1-4-4-4-1-|----------------|1-1-1-1-4-4-4-4-|
E|----------------|----------------|----------------|

  D#
  +   +   +   +    +   +   +   +
G|----------------|----------------|
D|1---1--1111-1--1|1-1-1--1111-1-1-|
A|----------------|----------------|
E|----------------|----------------|

Chorus 2:

  F#      C#       D#               F#      C#       D#
  +   +   +   +    +   +   +   +    +   +   +   +    +   +   +   +
G|----------------|----------------|----------------|-------68----68-|
D|4-4-------------|1---------------|4-4-------------|----68--h-68--h-|
A|--------4-4-----|----1-----------|--------4-4-----|6----h-----h----|
E|----------------|--------4---2---|----------------|----------------|

  F#      C#       D#               F#      C#       D#
  +   +   +   +    +   +   +   +    +   +   +   +    +   +   +   +
G|----------------|----------------|----------------|----8-----------|
D|4-4-------------|1---------------|4-4-------------|----------------|
A|--------4-4-----|----1-----------|--------4-4-----|6------6666-6---|
E|----------------|--------4---2---|----------------|----------------|

  D#
  +   +   +   +
G|----------------|
D|----------------|
A|6--6---6---6----|
E|----------------|

Verse 3:

  A#m     G#       D#      F#       A#m     G#       D#      F#
  +   +   +   +    +   +   +   +    +   +   +   +    +   +   +   +
G|3---3-3-1---1-1-|----------------|3---3-3-1---1-1-|----------------|
D|----------------|1---1-1-----4-4-|----------------|1---1-1---------|
A|----------------|----------------|----------------|----------------|
E|----------------|--------2-------|----------------|--------2-------|

  A#m     C#       D#      F#       A#m     C#       D#      F#
  +   +   +   +    +   +   +   +    +   +   +   +    +   +   +   +
G|----------------|----------------|----------------|----------------|
D|----------------|1---1-3-4---4-4-|----------------|1---1-1-4-------|
A|1---1-1-4---4-4-|----------------|1---1-1-4---4-4-|----------------|
E|----------------|----------------|----------------|----------------|

Bridge:

  C#               D#m              C#               D#m
  +   +   +   +    +   +   +   +    +   +   +   +    +   +   +   +
G|----------------|--------11108---|----------------|----------------|
D|------------6/8-|-------------8\-|----------68-68-|--------4686-4--|
A|4---------------|6---------------|4----------/--/-|6--------/----6-|
E|----------------|----------------|----------------|----------------|

  C#               D#m              C#
  +   +   +   +    +   +   +   +    +   +   +   +
G|----------------|-----1011-------|----------------|
D|----------68-68-|-------/----8\--|----------------|
A|4----------/--/-|6---------------|4-----------1---|
E|----------------|----------------|----------------|

  D#m
  +   +   +   +    +   +   +   +
G|----------------|----------------|
D|1---1--1111-1--1|1-1-1--11111111-|
A|----------------|----------------|
E|----------------|----------------|

Chorus 3:

  F#      C#       D#               F#      C#       D#
  +   +   +   +    +   +   +   +    +   +   +   +    +   +   +   +
G|----------------|----------------|----------------|--------86--86--|
D|4-4-------------|1---------------|4-4-------------|----68----8---8\|
A|--------4-4-----|----1-----------|--------4-4-----|6----/----------|
E|----------------|--------4---2---|----------------|----------------|

  F#      C#       D#               F#      C#       D#
  +   +   +   +    +   +   +   +    +   +   +   +    +   +   +   +
G|----------------|----------------|----------------|------68-6-6-6--|
D|4-4-------------|1---------------|4-4-------------|----68----8-8---|
A|--------4-4-----|----1-----------|--------4-4-----|6----/----------|
E|----------------|--------4---2---|----------------|----------------|

  F#      C#       D#               F#      C#       D#
  +   +   +   +    +   +   +   +    +   +   +   +    +   +   +   +
G|----------------|----------------|----------------|----------------|
D|4-4-------------|1---------------|4-4-------------|----------------|
A|--------4-4-----|----1-----------|--------4-4-----|6---6-46-6-46-46|
E|----------------|--------4---2---|----------------|----------6--6--|

  F#      C#       D#               F#      C#       D#
  +   +   +   +    +   +   +   +    +   +   +   +    +   +   +   +
G|----------------|----------------|----------------|----8--8----8--8|
D|4-4-------------|1---------------|4-4-------------|----------------|
A|--------4-4-----|----1-----------|--------4-4-----|6-------6-6-----|
E|----------------|--------4---2---|----------------|----------------|

  +   +   +   +    +   +   +   +    +   +   +   +    +   +   +   +
G|-8--8--8-8--8---|----8--8-8--8--8|-8--8--8--------|----------------|
D|------------8---|----8-------8---|----------------|----------------|
A|6-6-----6-6---6-|6-6-----6-6-----|6-6-----6-6-6-6~|----------------|
E|----------------|----------------|----------------|----------------|

Rest.

Ending:

(4:29)
   __________ Riff A ____________      __________ Riff B ____________
  /                              \    /                              \
  F#      C#      D#                  F#      C#      D#
  +       +       +       +           +       +       +       +
G|--------------------------------|  |----------1013------------------|
D|--8-11--------------------------|  |--8-11--11------13--------------|
A|9---------8-11------------------|  |9-------------------------------|
E|--------9-------11--------------|  |--------------------------------|
  \ | /   \ | /                       \ | /   \ | /
    3       3                           3       3

   ___________ Riff C ___________
  /                              \
  F#      C#      D#
  +       +       +       +
G|--------------------------------|
D|----------------1---------------|
A|--------4-----------------------|
E|2-------------------------------|

End Song:
                                    _______ Fade in Distortion ______         
                                   /
It goes like this (Riff): A, A, B, C, C, A, A, A, C, C, A, A, A, C, C
                                                       \_____________
                                                         Fade Out Sound



*****************************************************************
  -   -   -   -   -    ·+---------------+· -   -   -   -   -   -
 / \ / \ / \ / \ / \ / +| 8. TORTURE ME |+  \ / \ / \ / \ / \ / \
-   -   -   -   -   -  ·+---------------+·   -   -   -   -   -   
*****************************************************************

This song was very difficult to tab. There are a lot of ghost notes 
("What was that? The drum? The bass? The guitar? A echo? Aghhh!! BuM!"), 
and the tempo is very rare, so i wrote a 5 beats tempo in all the song except
the bridge, that is like always, 4/4.

Intro:

   #                                       F#
  +   +   +   +   +    +   +   +   +   +    +   +   +   +   +    +   +   +   +   +
G|--------------------|--------------------|--------------------|--------------------|
D|----3-3-----3-3---13|----3-3-----3-3---13|4--4--4--4--4--4/6--|4--4--4--4--6-4-----|
A|1-1-----1-1-----1--h|1-1-----1-1-----1--h|-----4-----4--------|-----4-----4----4---|
E|--------------------|--------------------|--------------------|--------------------|

  A#                                        F#
  +   +   +   +   +    +   +   +   +   +    +   +   +   +   +    +   +   +   +   +
G|--------------------|--------------------|--------------------|---------1----------|
D|----3-3-----3-3---13|----3-3-----3-3---13|4--4--4--4--4--4/6--|4--4--4-----4--34-3-|
A|1-1-----1-1-----1--h|1-1-----1-1-----1--h|-----4-----4--------|-----4----------h---|
E|--------------------|--------------------|--------------------|--------------------|

Verse 1 x6 (with V. End 1, 1, 1, 3, 1, 3):

                                                                  ______V. End 1_____
   A#                                        F#                                      \
   +   +   +   +   +    +   +   +   +   +    +   +   +   +   +    +   +   +   +   +
G||--------------------|--------------------|--------------------|--------------------||
D|·----3-3-----3-3---13|----3-3-----3-3---13|4--4--44-4--4--4/6--|4--4--44-4--6-4-----·|
A|·1-1-----111-----1--h|111-----111-----1--h|-----4-----4--------|-----4-----4----4---·|
E||--------------------|--------------------|--------------------|--------------------||

  ______V. End 2_____     ______V. End 3_____     ______V. End 4_____
                     \                       \                       \
  +   +   +   +   +       +   +   +   +   +       +   +   +   +   +
G|---------1----------|  |---------1----------|  |------------1--1----|
D|4--4--4-----4--34-3-|  |4--4--4-----4--3----|  |4--4--4--4--------4-|
A|-----4----------h---|  |-----4------------4-|  |-----4--------------|
E|--------------------|  |--------------------|  |--------------------|

Chorus 1:

  A#                                       C#
  +       +       +       +       +        +       +       +       +       +
G|----------------------------------------|--------10------13----------10------13--|
D|--------15------------------15------15--|11--------------------------------------|
A|13--------------------------------------|----------------------------------------|
E|----------------------------------------|----------------------------------------|

  F#                                       D#m
  +       +       +       +       +        +       +       +       +       +
G|11--------------11--------------11--10--|----------------------------------------|
D|--------11------------------11----------|13--------------13--------------13--15--|
A|----------------------------------------|--------13------------------13----------|
E|----------------------------------------|----------------------------------------|

  A#                                       C#
  +       +       +       +       +        +       +       +       +       +
G|----------------------------------------|--------10------13----------10------13--|
D|--------15------------------15------15--|11------------------------------11------|
A|13--------------13--------------13------|----------------------------------------|
E|----------------------------------------|----------------------------------------|

  F#                                       D#m
  +       +       +       +       +        +       +       +       +       +
G|11--------------11--------------11--10--|----------------------------------------|
D|--------11------------------11----------|13--------------13--------------13------|
A|----------------------------------------|--------13------------------------------|
E|----------------------------------------|----------------------------------------|

Verse 2 x4 (with V. End 1, 2, 1, 3).

Chorus 2:

  A#                                       C#
  +       +       +       +       +        +       +       +       +       +
G|----------------------------------------|--------10------13----------10------13--|
D|--------15------------------15------15--|11------------------------------11------|
A|13--------------13--------------13------|----------------------------------------|
E|----------------------------------------|----------------------------------------|

  F#                                       D#m
  +       +       +       +       +        +       +       +       +       +
G|11--------------11--------------11--10--|----------------------------------------|
D|--------11------------------11----------|13--------------13--------------13--15--|
A|----------------------------------------|--------13------------------13----------|
E|----------------------------------------|----------------------------------------|

  A#                                       C#
  +       +       +       +       +        +       +       +       +       +
G|----------------------------------------|--------10------13----------10------13--|
D|--------15------------------15------15--|11------------------------------11------|
A|13--------------13--------------13------|----------------------------------------|
E|----------------------------------------|----------------------------------------|

  F#                                       D#m
  +       +       +       +       +        +       +       +       +       +
G|11--------------11--------------11--10--|----------------------------------------|
D|--------11------------------11----------|13--------------13----------------------|
A|----------------------------------------|--------13------------------------------|
E|----------------------------------------|----------------------------------------|

Bridge:

  C#                               D#m
  +       +       +       +        +       +       +       +
G|------10----------------1110----|------11--------1110------------|
D|--------------------------------|----------------------11--------|
A|----11--------------------------|--------------------------13\---|
E|9----------------------9----9---|11------------------------------|

  C#
  +       +       +       +
G|------10--------------101110----|
D|------------------------/-\-11--|
A|----11--------------11----------|
E|9-----------------9-------------|

  D#m
  +               +               +               +
G|------------11------------------111311--101110------------------|
D|----------------------------------h-p-----h-p---111311----------|
A|-------13-----------------------------------------h-p---13-\11--|
E|11--------------------------------------------------------------|

  C#                               D#m
  +       +       +       +        +       +       +       +
G|------10----------------10------|------11--------1513--11--------|
D|--------------------11----11----|-------------------------(13\)--|
A|----11----------------11----11--|--------------------------------|
E|9------------------9------------|11-----------(11----11--11)-----|

  C#                               D#m
  +       +       +       +        +       +       +       +
G|------10----------------1110----|------11------------15----13----|
D|--------------------------------|--------------------------------|
A|----11--------------------------|----------------/-/-----\-------|
E|9----------------------9----9---|11------------111314--1413--13\-|

  C#                               D#m
  +       +       +       +        +       +       +       +
G|------10-------1110---11-10-----|------11~-----------------------|
D|-------------11----11-------11--|----13--------------------------|
A|----11--------------------------|--------------------------------|
E|9-------------------------------|11------------------------------|

Verse 3 x4 (with V. End 1, 3, 3, 4).

Chorus 3:

   A#                                       C#
   +       +       +       +       +        +       +       +       +       +
G||----------------------------------------|--------10------13----------10------13--|
D|·--------15------------------15------15--|11------------------------------11------|
A|·13--------------13--------------13------|----------------------------------------|
E||----------------------------------------|----------------------------------------|

  F#                                       D#m
  +       +       +       +       +        +       +       +       +       +
G|11--------------11--------------11--10--|----------------------------------------||
D|--------11------------------11----------|13--------------13--------------13--15--·|
A|----------------------------------------|--------13------------------13----------·|
E|----------------------------------------|----------------------------------------|| x2

  A#                                       C#
  +       +       +       +       +        +       +       +       +       +
G|----------------------------------------|--------10--10--13--13------10------13--|
D|--------15------------------15------15--|11--11--------------------------11------|
A|13--------------13--------------13------|----------------------------------------|
E|----------------------------------------|----------------------------------------|

  F#                                       D#m
  +       +       +       +       +        +       +       +       +       +
G|11--------------11--------------11--10--|----------------------------------------|
D|--------11------------------11----------|13--------------13--------13----13--15--|
A|----------------------------------------|--------13------------------13----------|
E|----------------------------------------|----------------------------------------|

  A#                                       C#
  +       +       +       +       +        +       +       +       +       +
G|----------------------------------------|--------10------13----------10------13--|
D|--------15------------------15------15--|11------------------------------11------|
A|13--------------13--------------13------|----------------------------------------|
E|----------------------------------------|----------------------------------------|

  F#                                       D#m
  +       +       +       +       +        +       +       +       +       +
G|11--------------11--------------11--10--|----------------------------------------|
D|--------11------------------11----------|13--------------13--------------13------|
A|----------------------------------------|--------13------------------------------|
E|----------------------------------------|----------------------------------------|

  A#
  +   +   +   +    +   +   +   +  
G|----------------|----------------|
D|----------------|----------------|
A|----------------|----------------|
E|6~--------------|----------------|



********************************************************************
  -   -   -   -   -    ·+------------------+· -   -   -   -   -   - 
 / \ / \ / \ / \ / \ / +| 9. STRIP MY MIND |+  \ / \ / \ / \ / \ / \
-   -   -   -   -   -  ·+------------------+·   -   -   -   -   -   
********************************************************************

Verse 1 (0:18):

  Am      Em       F       C        D       Am       C       G
  +   +   +   +    +   +   +   +    +   +   +   +    +   +   +   +    
G|----------------|----------------|----------------|----------------|
D|----------------|----------------|----------------|----------------|
A|----------------|--------3-------|5---------------|3---------------|
E|5-------0-------|1---------------|--------5-------|--------3-------|

  Am      Em       F       C        D       Am       C       G
  +   +   +   +    +   +   +   +    +   +   +   +    +   +   +   +    
G|----------------|----------------|----------------|----------------|
D|----------------|----------------|/---------------|------\---------|
A|----------------|--------3------3|5---575---------|3----53---------|
E|5-----3-0-------|1---------------|-------85-------|--------3-------|

  Am      Em       F       C        D       Am       C       G
  +   +   +   +    +   +   +   +    +   +   +   +    +   +   +   +    
G|----------------|----------------|----------------|----------------|
D|----------------|----------------|------p---------|---/------------|
A|----------------|------023-3----3|5----75--------0|3-57503---------|
E|5-----3-0-------|1---------------|-------85-------|--------3-------|

Pre-Chorus 1:

  F                                C
  +       +       +       +        +       +       +       +         
G|------------101214--12--10------|--------------------------------|
D|-------/10------/-----------12--|10--------------10--12--10------|
A|8-------------------------------|--------------10------------10--|
E|--------------------------------|--------------------------------|

  F
  +       +       +       +    
G|------------101214--12--101210\\|
D|-------/10------/---------------|
A|8-------------------------------|
E|--------------------------------|

Chorus 1:

  Am      G     F                   Am      G     F
  +   +   +   +    +   +   +   +    +   +   +   +    +   +   +   +    
G|----------------|----------------|----------------|----------------|
D|7---7---5-5---3-|--3-3--333--3-3-|7---7---5-5---3-|--3-3--333---33-|
A|----------------|----------------|----------------|----------------|
E|----------------|----------------|----------------|----------------|

  Am      G     F
  +   +   +   +    +   +   +   +   
G|----------------|----------------|
D|7---7---4-4---3~|----------------|
A|----------------|----------------|
E|----------------|----------------|

Verse 2:

  Am      Em       F       C        D       Am       C       G
  +   +   +   +    +   +   +   +    +   +   +   +    +   +   +   +    
G|----------------|----------------|----------------|----------------|
D|----------------|----------------|-----5----------|---5------------|
A|----------------|------023-3---3-|5--57-7---------|357-75----------|
E|5-------0-------|1---------------|----/--85-5-----|--/---8-3-3-----|

  Am      Em       F       C        D       Am       C       G
  +   +   +   +    +   +   +   +    +   +   +   +    +   +   +   +    
G|----------------|----------------|----------------|----------------|
D|----------------|----------------|----------------|---/------------|
A|----------------|-------03-3---3/|5---575---------|3-57503---------|
E|5-5--35-0-0-----|1---------------|-------85-5-----|--------3-3--03-|

  Am      Em       F       C        D       Am       C       G
  +   +   +   +    +   +   +   +    +   +   +   +    +   +   +   +    
G|----------------|----------------|----------------|----------------|
D|----------------|----------------|----------------|----------------|
A|----------------|------023-3--03-|5-----5---------|3-----3---------|
E|5---5-3-0----00-|1---1-----------|-------85-5-5-5-|--------3-------|

Pre-Chorus 2:

  F                                C
  +       +       +       +        +       +       +       +         
G|------------101214--12--10------|-----------12-1214--12----------|
D|-------/10------/-----------12--|10-----/10------/-----1412------|
A|8-------------------------------|--------------------------1512--|
E|--------------------------------|------------------------------15|

  F
  +       +       +       +    
G|------------101214------12--\\--|
D|-------/10------/---------------|
A|8-------------------------------|
E|--------------------------------|

Chorus 2:

  Am      G     F                   Am      G     F
  +   +   +   +    +   +   +   +    +   +   +   +    +   +   +   +    
G|----------------|----------------|----------7-----|----------------|
D|7---7---5-5---3-|--3-3--33-3-3-3-|7---7---5-----3-|--3-3--333--3-3-|
A|----------------|----------------|----------------|----------------|
E|----------------|----------------|----------------|----------------|

  Am      G     F
  +   +   +   +    +   +   +   +   
G|----------------|----------------|
D|7---7---4-4---3~|--3-3---3-3-2-5-|
A|----------------|----------------|
E|----------------|----------------|

Solo:

  Am      Em       F       C        D       Am       C       G
  +   +   +   +    +   +   +   +    +   +   +   +    +   +   +   +    
G|----------------|----------------|----------------|----------------|
D|----------------|----------------|----------------|----------------|
A|----------------|---------33-3---|5-5-5--5--------|3-3-3--3--------|
E|5---5--5-00-0---|1---1--1--------|---------55-5---|---------33-3---|

  Am      Em       F       C        D       Am       C       G
  +   +   +   +    +   +   +   +    +   +   +   +    +   +   +   +    
G|----------------|----------------|----------------|----------------|
D|----------------|----------------|----------------|---5------------|
A|----------------|---------33-3---|5---5--5--------|357-75353-------|
E|5---5--5-33-1-0-|1---1--1--------|---------55-5---|--/------33-353-|

Verse 3:

  Am      Em       F       C        D       Am       C       G
  +   +   +   +    +   +   +   +    +   +   +   +    +   +   +   +    
G|----------------|----------------|----------------|----------------|
D|----------------|----------------|----------------|----------------|
A|----------------|---------33---3-|5---5--5--------|3---3--3--------|
E|5---5--5-00---0-|1---1--1--------|---------55-5-5-|---------33-----|

Pre-Chorus 3:

  F                                C
  +       +       +       +        +       +       +       +
G|------------101214--12--10------|----------12-/1412--------------|
D|-------/10------/-----------12--|10---/1214--------1412--12------|
A|8-------------------------------|----------------------15--1512\-|
E|--------------------------------|--------------------------------|

  F
  +       +       +       +    
G|-------------101214-----12\\----|
D|----------/10----/--------------|
A|8-------------------------------|
E|--------------------------------|

Chorus:

  Am      G     F                   Am      G     F
  +   +   +   +    +   +   +   +    +   +   +   +    +   +   +   +    
G|----------------|----------------|----------7-----|----------------|
D|7---7---5-5---3-|----3--33-3-333-|7---7---5---5-3-|--3-3--333--3-3-|
A|----------------|----------------|----------------|----------------|
E|----------------|----------------|----------------|----------------|

  Am      G     F                   Am      G     F
  +   +   +   +    +   +   +   +    +   +   +   +    +   +   +   +    
G|----------------|----------------|----------------|----------------|
D|7---7---4-4---3-|--3-3--33-3-333-|7---7---4-4-----|----------------|
A|----------------|----------------|----------------|----------------|
E|----------------|----------------|--------------1~|----------------|



*****************************************************************************
  -   -   -   -   -    ·+----------------------------+· -   -   -   -   -   -
 / \ / \ / \ / \ / \ / +| 10. ESPECIALLY IN MICHIGAN |+  \ / \ / \ / \ / \ / 
-   -   -   -   -   -  ·+----------------------------+·   -   -   -   -   -   
*****************************************************************************


Intro:

  F#m
  +       +       +       +        +       +       +       +
G|911-111111--1111--1111--11--1111|911-111111-1111--1111-----------|
D|-h------------------------------|-h----------------------9h11-9--|
A|--------------------------------|--------------------------------|
E|--------------------------------|--------------------------------|

  +       +       +       +        +       +       +       +
G|911-111111--1111--1111--11--1111|911-11111111111111111111111111\-|
D|-h------------------------------|-h------------------------------|
A|--------------------------------|--------------------------------|
E|--------------------------------|--------------------------------|

Verse 1:

   F#m     C#       E       Bm
   +   +   +   +    +   +   +   +
G||----------------|----------------||
D|·----------------|----------------·|
A|·9-999-99--------|7-777-77--------·|
E||--------9-999-99|--------7-777-77|| x9

  F#m     C#       E       Bm
  +   +   +   +    +   +   +   +
G|----------------|----------------|
D|----------------|----------------|
A|9-999-99--------|7-777-77--------|
E|--------9-999-99|--------7-777-7-|

Pre-Chorus:

  A                E                F#m              D
  +   +   +   +    +   +   +   +    +   +   +   +    +   +   +   +
G|----------------|----------------|----------------|----------------|
D|----------------|----------------|4-4-4-4-4-4-4-7-|----------------|
A|----------------|7-7-7-7-7-7-7-7-|----------------|5-5-5-5-5-5-5-5-|
E|5-5-5-5-5-5-5-5-|----------------|----------------|----------------|

  A                E                F#m              D
  +   +   +   +    +   +   +   +    +   +   +   +    +   +   +   +
G|----------------|----------------|----------------|----------------|
D|----------------|----------------|4-4-4-4-4-4-4-4-|----------------|
A|----------------|7-7-7-7-7-7-7-7-|----------------|5-5-5-5-5-5-5-5-|
E|5-5-5-5-5-5-5-5-|----------------|----------------|----------------|

  A
  +   +   +   +
G|----------------|
D|----------------|
A|5-5-5-5-5-5-5-5-|
E|----------------|

Verse 2:

   F#m     C#       Em      Bm
   +   +   +   +    +   +   +   +
G||----------------|----------------||
D|·----------------|----------------·|
A|·9-999-99--------|7-777-77--------·|
E||--------9-999-99|--------7-777-77|| x5

  F#m     C#       Em      Bm
  +   +   +   +    +   +   +   +
G|----------------|----------------|
D|----------------|----------------|
A|9-999-99--------|7-777-77--------|
E|--------9-999-99|--------7-777---|

Chorus:

  A                Em               F#m              D
  +   +   +   +    +   +   +   +    +   +   +   +    +   +   +   +
G|----------------|----------------|----------------|----------------|
D|----------------|--\-------------|----------------|----------------|
A|12--1212--121212|127-7-7---7-7-7-|7/9-9-9---9-9-9-|9\5-5-5---5-5-5-|
E|----------------|----------------|----------------|----------------|

  A                Em               F#m              D
  +   +   +   +    +   +   +   +    +   +   +   +    +   +   +   +
G|----------------|----------------|----------------|----------------|
D|----------------|--\-------------|----------------|----------------|
A|5/121212--121212|127-7-7---7-7-7-|7/9-9-9---9-9---|9\5-5-5---5-5-5-|
E|----------------|----------------|----------------|----------------|

  A                Em               F#m              D
  +   +   +   +    +   +   +   +    +   +   +   +    +   +   +   +
G|----------------|----------------|----------------|----------------|
D|----------------|--\-------------|----------------|----------------|
A|5/121212--121212|127-7-7---7-7-7-|7/9-9-9---9-9-9-|9\5-5-5---5-5-5-|
E|----------------|----------------|----------------|----------------|

  A                Em               F#m              D
  +   +   +   +    +   +   +   +    +   +   +   +    +   +   +   +
G|----------------|----------------|----------------|----------------|
D|----------------|--\-------------|----------------|----------------|
A|5/121212--121212|127-7-7---7-7-7-|7/9-9-9---9-9---|9\5-5-5---5-5---|
E|----------------|----------------|----------------|--------------0-|

Solo:

  F#m             A                C#              Em
  +       +       +       +        +       +       +       +
G|--------------------------------|--------------------------------|
D|--------------------------------|--------------------------------|
A|--------------------------------|--------------------------------|
E|2---2-2-2---2-2-2/5-5-5-5---5-5-|5/9-9-9-9---9-9-9/12--1212--12\\|

  F#m             A                C#              Em
  +       +       +       +        +       +       +       +
G|--------------------------------|--------------------------------|
D|--------------------------------|--------------------------------|
A|--------------------------------|--------------------------------|
E|2---2-2-2---2-2-2/5-5-5-5-5-5---|5/9-9-9-9---9-9-9/121212121212--|

  F#m             D                Em              Bm
  +       +       +       +        +       +       +       +
G|--------------------------------|--------------------------------|
D|--------------------------------|--------------------------------|
A|--/---------------\-------------|--\-----------------------------|
E|1214141414--14141410101010--10--|100-0-0-0---0-0-0/7-7-7-7-7-7---|

  F#m             D                Em              Bm
  +       +       +       +        +       +       +       +
G|--------------------------------|--------------------------------|
D|--------------------------------|--------------------------------|
A|--/---------------\-------------|--\-----------------------------|
E|1214141414--14141410101010--10--|100-0-0-0---0-0-0/7-7-7-7-------|

  F#m
  +   +   +   +    +   +   +   +    +   +   +   +    +   +   +   +
G|----------------|----------------|----------------|----------------|
D|----------------|----------------|----------------|----------------|
A|----------------|----------------|----------------|----------------|
E|2-222-222-222-22|2-222-222-222-22|2-222-222-222-22|2-222-222-222-2/|

Verse 3:

   F#m     C#       E       Bm
   +   +   +   +    +   +   +   +
G||----------------|----------------||
D|·----------------|----------------·|
A|·9-999-99--------|7-777-77--------·|
E||--------9-999-99|--------7-777-77|| x3

  F#m     C#       E       Bm
  +   +   +   +    +   +   +   +
G|----------------|----------------|
D|----------------|----------------|
A|9-999-99--------|7-777-79--------|
E|--------9-999-99|--------7-777---|


Chorus 2:

  A                Em               F#m              D
  +   +   +   +    +   +   +   +    +   +   +   +    +   +   +   +
G|----------------|----------------|----------------|----------------|
D|----------------|--\-------------|----------------|----------------|
A|12--1212--121212|127-7-7---7-7-7-|7/9-9-9---9-9-9-|9\5-5-5---5-5---|
E|----------------|----------------|----------------|----------------|

  A                Em               F#m              D
  +   +   +   +    +   +   +   +    +   +   +   +    +   +   +   +
G|----------------|----------------|----------------|----------------|
D|----------------|--\-------------|----------------|----------/-\---|
A|5/121212--121212|127-7-7---7-7-7-|7/9-9-9---9-9---|9\5-5-5---125---|
E|----------------|----------------|----------------|----------------|

  A                Em               F#m              D
  +   +   +   +    +   +   +   +    +   +   +   +    +   +   +   +
G|----------------|----------------|----------------|----------------|
D|----------------|--\-------------|----------------|----------------|
A|5/121212--121212|127-7-7---7-7-7-|7/9-9-9---9-9-9-|9\5-5-5---5-5-5-|
E|----------------|----------------|----------------|----------------|

  A                Em               F#m              D
  +   +   +   +    +   +   +   +    +   +   +   +    +   +   +   +
G|----------------|----------------|----------------|----------------|
D|----------------|--\-------------|----------------|----------------|
A|5/121212--121212|127-7-7---7-7-7-|7/9-9-9---9-9---|9\5-5-5---5-5-5-|
E|----------------|----------------|----------------|----------------|

  A                F#m
  +   +   +   +    +   +   +   +    +   +   +   +    +   +   +   +
G|----------------|----------------|----------------|----------------|
D|----------------|----------------|----------------|----------------|
A|5-----5-5-------|----------------|----------------|----------------|
E|----------------|2~--------------|----------------|----------------|



****************************************************************
  -   -   -   -   -    ·+--------------+· -   -   -   -   -   -
 / \ / \ / \ / \ / \ / +| 11. WARLOCKS |+  \ / \ / \ / \ / \ / \
-   -   -   -   -   -  ·+--------------+·   -   -   -   -   -   
****************************************************************

Verse 1:

  Em
  +    +   +   +   +    +   +   +   +    +   +   +   +    +   +   +   +
G|----|----------------|----------------|----------------|----------------|
D|----|----------------|----------------|----------------|----------------|
A|----|575---57--------|575---57--------|575---57--------|757---57--------|
E|---7|-----7--0------7|-----7--0------7|-----7--0------7|-----7--03-5-6-7|

  +   +   +   +    +   +   +   +    +   +   +   +    +   +   +   +
G|----------------|----------------|----------------|----------------|
D|----------------|----------------|----------------|---------5--75--|
A|575---57--------|575---57--------|575---57--------|575---57---7--7-|
E|-----7--0------7|-----7--0------7|-----7--0------7|-----7---------7|

  +   +   +   +    +   +   +   +    +   +   +   +    +   +   +   +
G|----------------|------------97--|----------------|----------------|
D|----------------|-------------p--|----------------|----------------|
A|575---57--------|575---57--------|575---57--------|575---57--------|
E|-----7-----0---7|-----7--0------7|-----7--0------7|-----7--0---5-7-|
             T

Chorus 1:

  Em               C                Am               G
  +   +   +   +    +   +   +   +    +   +   +   +    +   +   +   +
G|----------------|----------------|----------------|----------------|
D|22222-xx2-x5-4-x|---------5-4-2--|----------------|----------------|
A|----------------|33333-xx3------x|-/--------5-----|--------5---5---|
E|----------------|----------------|35555-xx58-7-5-x|3---3-----------|

  Em               C                Am               G
  +   +   +   +    +   +   +   +    +   +   +   +    +   +   +   +
G|----------------|--------2-------|----------------|----------------|
D|22222-xx2x-5-4-x|---------5-4-2--|----------------|----------------|
A|----------------|33333-xx-------x|-/--------5-----|--------5---5---|
E|----------------|----------------|35555-xx58-7-5-x|3---3-----------|

Verse 2:

  Em
  +   +   +   +    +   +   +   +    +   +   +   +    +   +   +   +
G|----------------|----------------|----------------|--------7---76--|
D|----------------|----------------|----------------|-------6---7--5-|
A|575---57--------|575---57--------|575---57--------|575---5--57-----|
E|-----7--0------7|-----7--0------7|-----7--0------7|-----7----------|

  +   +   +   +    +   +   +   +    +   +   +   +    +       +       +       +
G|----------------|----------------|----------------|-------------97-----------------|
D|----------------|----------------|----------------|---------------97-5-5-7-5-------|
A|575---57--------|575---57--------|575---57--------|5-7-5--------\_/----------------|
E|-----7--0------7|-----7--0------7|-----7--0------7|--------------|-----------------|
                                                                   | P P P P P
                                                                quickly!

  +   +   +   +    +   +   +   +    +   +   +   +    +   +   +   +
G|----------------|----------------|----------------|----------------|
D|----------------|----------------|----------------|----------------|
A|575---57--------|575---57--------|575---57--------|575---57--------|
E|-----7--0------7|-----7--0--3--5-|-----7--0------7|-----7--0-------|

Chorus 2:

  Em               C                Am               G
  +   +   +   +    +   +   +   +    +   +   +   +    +   +   +   +
G|----------------|----------------|----------------|----------------|
D|22222-xx2-x5-4-x|---------5-4-2--|----------------|----------------|
A|----------------|33333-xx3------x|-/--------5-----|--------5---5---|
E|----------------|----------------|35555-xx58-7-5-x|3---3-----------|

  Em               C                Am               G
  +   +   +   +    +   +   +   +    +   +   +   +    +   +   +   +
G|----------------|--------2-------|----------------|----------------|
D|22222-xx2x-5-4-x|---------5-4-2--|---------p------|----------------|
A|----------------|33333-xx-------x|-/------75------|--------5---5---|
E|----------------|----------------|35555-xx---7-5-x|3---3-----------|

Verse 3:

  +   +   +   +    +   +   +   +    +   +   +   +    +   +   +   +
G|----------------|----------------|----------------|----------------|
D|----------------|---------5-7-9--|-----------5----|----------------|
A|575---57--------|575---57--------|575---57--------|575---57--------|
E|-----7--0------7|-----7--0-------|-----7--0------7|-----7--0-------|
                            P P P              P

Bridge:

  C                                 Bm
  +   +   +   +    +   +   +   +    +   +   +   +    +   +   +   +
G|----------------|----------------|----------------|----------------|
D|----------------|----------------|----------------|---------0002200|
A|3333333333333333|3333333333333333|2222222222222222|222222222-------|
E|----------------|----------------|----------------|----------------|

  C                                 Bm
  +   +   +   +    +   +   +   +    +   +   +   +    +       +       +       +
G|----------------|----------------|----------------|--------------------------------|
D|----------------|---2233553322---|----------------|--------------------------------|
A|3333333333333333|355----------553|2222222222222222|2--/141414--141414141414141414--|
E|----------------|----------------|----------------|--------------------------------|

Verse 4:

  Em
  +   +   +   +    +   +   +   +    +   +   +   +    +   +   +   +
G|----------------|----------------|----------------|--7-------------|
D|----------------|----------------|----------------|76-------7-5----|
A|575---57--------|575---57--------|575---57-------5|-------56-------|
E|-----7--0------7|-----7--0------7|-----7--0-------|-----57--------7|

  +   +   +   +    +   +   +   +    +   +   +   +    +   +   +   +
G|----------------|----------------|----------------|----------------|
D|----------------|----------------|--5-------------|------7---8---9-|
A|575---57--------|575---57--------|57----57--------|57--------------|
E|-----7--0------7|-----7--0------7|-----7--0------7|----------------|

  +   +   +   +    +   +   +   +    +   +   +   +    +   +   +   +
G|----------------|----------------|----------------|----------------|
D|----------------|----------------|----------------|----------------|
A|575---57--------|575---57--------|575---57--------|575---55--------|
E|-----7--0------7|-----7--0------7|-----7--0------7|-----7--75-3----|

Chorus 3:

  Em               C                Am               G
  +   +   +   +    +   +   +   +    +   +   +   +    +   +   +   +
G|----------------|----------------|----------------|----------------|
D|22222-xx2-x5-4-x|---------5-4-2--|----------------|----------------|
A|----------------|33333-xx3------x|-/--------5-----|--------5---5---|
E|----------------|----------------|35555-xx58--75-x|3---3-----------|

  Em               C                Am               G
  +   +   +   +    +   +   +   +    +   +   +   +    +   +   +   +
G|----------------|---------2------|----------------|----------------|
D|22222-xx25-4-2-x|--------5-52----|----------------|----------------|
A|----------------|33333-xx-----3-x|-/--------57-5--|--------5---5---|
E|----------------|----------------|35555-xx58----7x|3---3-----------|

  Em               C                Am               G
  +   +   +   +    +   +   +   +    +   +   +   +    +   +   +   +
G|----------------|----------------|----------------|----------------|
D|22222-xx2x-5-4-x|---------5-4-2--|----------------|----------------|
A|----------------|33333-xx3------x|-/--------5-----|--------5---5---|
E|----------------|----------------|35555-xx58-7-5-x|3---3-----------|

  Em               C                Am               G
  +   +   +   +    +   +   +   +    +   +   +   +    +   +   +   +
G|----------------|---2------------|----------------|----------------|
D|22222-xx22-5-4-x|-----5-4-5-4-2--|----------------|----------------|
A|----------------|33x------------x|-/--------5-----|--------5---5---|
E|----------------|----------------|35555-xx58-7-5-x|3---3-----------|

  Em
  +   +   +   +
G|----------------|
D|----------------|
A|----------------|
E|--0~------------|



******************************************************************
  -   -   -   -   -    ·+----------------+· -   -   -   -   -   -
 / \ / \ / \ / \ / \ / +| 12. C'MON GIRL |+  \ / \ / \ / \ / \ / \
-   -   -   -   -   -  ·+----------------+·   -   -   -   -   -   
******************************************************************


Verse 1 (play this riffs -> A x2, B, A, B, A, B x2, A, C x2, D1):

   ____________ Riff A ___________      ____________ Riff B ___________
  /                               \    /                               \
   Em                                  G       D        Em      C
   +   +   +   +   +   +   +   +       +   +   +   +    +   +   +   + 
G|----7799----9977|----7799----9977|  |----77----------|----44----------|
D|--99------99----|--99------99----|  |5555--55----77--|2222--22----55--|
A|77------77------|77------77------|  |--------5555--55|--------3333--33|
E|----------------|----------------|  |----------------|----------------|  

   ____________ Riff C ___________
  /                               \
  Am      C        G       D
  +   +   +   +    +   +   +   +   
G|------------4455|------------6677|
D|----5577--55----|----4455--77----|
A|--77----33------|--55----55------|
E|55--------------|33--------------|

   ___________________________ Riff D1 ___________________________
  /                                                               \
  Em
  +       +       +       +        +       +       +       +  
G|--------------------------------|--------------------------------|
D|--------------------------------|--------------------------------|
A|--------------------------------|--------------------------------|
E|7---7---7---7-7-7---7---7---7---|7/1919191919191919191919191919--|

   ___________________________ Riff D2 ___________________________
  /                                                               \
  Em
  +       +       +       +        +       +       +       +  
G|--------------------------------|--------------------------------|
D|--------------------------------|--------------------------------|
A|--------------------------------|--------------------------------|
E|7---7---7---7---7---7---7---7---|7/191919191919191919191919--19--|

   ___________________________ Riff D3 ___________________________
  /                                                               \
  +       +       +       +        +       +       +       +  
G|--------------------------------|--------------------------------|
D|--------------------------------|--------------------------------|
A|--------------------------------|--------------------------------|
E|7---7---7---7---7---7-7-7---7---|7/19--191919--191919191919--19--|

Chorus:
   
   Em
   +   +   +   +    +   +   +   + 
G||----------------|----------------||
D|·-----5----------|-----5----------·|
A|·7-7-x--x5-----5-|7-7-x--x5-------·|
E||----------77-7--|----------777777|| x8

Verse 2 (play this riffs -> A, B, A, B, A, B x2, A, C x2, D2):

Chorus.

Verse 3 (same as Verse 1, replace Riff D1 with Riff D3).

Chorus.

Solo:

  +   +   +   +    +   +   +   +    +   +   +   +    +   +   +   +
G|----------------|----------------|----------------|------------7-97|
D|-----5----------|-----5----------|-----5----------|-----5----79-9--|
A|7-7-x--x5-----5-|7-7-x--x5-------|7-7-x--x5-----5-|7-7-x--x5-------|
E|----------77-7--|----------777777|----------77-7--|----------------|

  +   +   +   +    +   +   +   +    +   +   +   +    +   +   +   +
G|----------------|----------------|----------------|----------7-97--|
D|-----5----------|-----5----------|-----5----------|-----5--79-9--9-|
A|7-7-x--x5-----5-|7-7-x--x5-------|7-7-x--x5-----5-|7-7-x--x--------|
E|----------77-7--|----------777777|----------77-7--|----------------|

  +   +   +   +   
G|----------------|
D|----------------|
A|7~--------------|
E|----------------|



****************************************************************
  -   -   -   -   -    ·+--------------+· -   -   -   -   -   -
 / \ / \ / \ / \ / \ / +| 13. WET SAND |+  \ / \ / \ / \ / \ / \
-   -   -   -   -   -  ·+--------------+·   -   -   -   -   - 
****************************************************************


Verse 1:

(0:33)

  G                                D (5º)
  +       +       +       +        +       +       +       +
G|--------------------------------|--------------------7-------7---|
D|5-----------------------5-------|7-----------------------7-------|
A|--------------------5-----------|--------------------------------|
E|--------------------------------|--------------------------------|

  Em (5º)                          Bm
  +       +       +       +        +       +       +       +
G|------------7/9/11--9-------7---|--------------------7-----------|
D|9-------------------------------|9-------------7-9-------9---7---|
A|--------------------------------|-----------10-------------------|
E|--------------------------------|--------------------------------|

  G                                D
  +       +       +       +        +       +       +       +
G|--------------------79--7-------|--------------------7-------7---|
D|5---------------79---/------9---|7-----------------------7-------|
A|-----------------/--------------|--------------------------------|
E|--------------------------------|--------------------------------|

  Em                               Bm
  +       +       +       +        +       +       +       +
G|----------------9/119---7-9-7---|----------------119--7----------|
D|9-------------------------------|9-----------------------9-7-----|
A|--------------------------------|--------------------------------|
E|--------------------------------|--------------------------------|

  G                                D
  +       +       +       +        +       +       +       +
G|--------------------------------|--------------------7-------7---|
D|5-----------------------5-------|7-----------------------7-------|
A|--------------------5-----------|--------------------------------|
E|-------------------3------------|--------------------------------|

  Em (5th)                         Bm
  +       +       +       +        +       +       +       +
G|--------------9/11------14------|--------------------------------|
D|9-------------------------------|9---------------9---9---9---9---|
A|--------------------------------|--------------------------------|
E|--------------------------------|--------------------------------|

Pre-Chorus 1:
  
  Em      G        D(5º)   C(3º)    Em      G        D       C
  +   +   +   +    +   +   +   +    +   +   +   +    +   +   +   +    
G|----------------|----------------|----------------|---------9------|
D|----------5-5--5|x7-7--7---------|---------x5-5--5|x7-7--7---------|
A|7---7--7-7------|---------x7-----|7---7--7--------|----------7---5-|
E|----------------|-------------07-|----------------|------------7---|

  Em      G        D       C        Em      G
  +   +   +   +    +   +   +   +    +   +   +   +  
G|----------------|----------------|----------------|
D|---------x5-5--5|x7-7--7---------|---------x5-5--x|
A|7---7--7--------|---------7777---|7---7--7--------|
E|----------------|--------------7-|----------------|

  D
  +       +       +       +        +       +       +       +
G|7-------7-----------------------|--------------------------------|
D|--------------------------------|--------------------------------|
A|--------------0-5----5--------0-|5---5---5-----0-5---5---5---05--|
E|--------------------------------|--------------------------------|

Verse 2:

  G                                D
  +       +       +       +        +       +       +       +
G|--------------------------------|--------------------7-------7---|
D|5-----------------------5-------|7-----------------------7-------|
A|--------------------5-----------|--------------------------------|
E|------------------3-------------|--------------------------------|

  Em                               Bm
  +       +       +       +        +       +       +       +
G|--------------9/11--9---7-9-7---|--------------------7-----------|
D|9-----------x-------------------|9-----------7-/-9---------9p7---|
A|--------------------------------|--------------------------------|
E|--------------------------------|--------------------------------|

  G                                D
  +       +       +       +        +       +       +       +
G|--------------------------------|------------------x-7-------7-9-|
D|5-----------------------5-------|7-----------------------7-------|
A|--------------------5-----------|--------------------------------|
E|------------------3-------------|--------------------------------|

  Em                               Bm
  +       +       +       +        +       +       +       +
G|----------------11----9h11--11--|--------------------------------|
D|9-------------------------------|9-------------9-9-9-9-9-9\------|
A|--------------------------------|--------------------------------|
E|--------------------------------|--------------------------------|

Pre-Chorus 2:
  
  Em      G        D       C        Em      G
  +   +   +   +    +   +   +   +    +   +   +   + 
G|----------------|----------------|----------------|
D|----------5-5--5|x7-7--7---------|---------x5-5---|
A|7---7--7-7------|---------x7-----|7---7--7--------|
E|----------------|-------------07-|----------------|

  D
  +   +   +   +    +   +   +   + 
G|7---7-----------|----------------|
D|----------------|----------------|
A|-------05-5-5--0|505-5--0555-5---|
E|----------------|----------------|

Chorus:

  E                C       E        E                C       E
  +   +   +   +    +   +   +   +    +   +   +   +    +   +   +   +    
G|----------------|5-5-------------|----------------|5-5-5-----------|
D|--------/-------|----------------|--------/-------|----------------|
A|7---7--6777-7-x-|------7-----756-|7---7--6777-----|------7---7-xx6-|
E|----------------|----------0-----|------------0-x-|----------------|

  E                C       E        E
  +   +   +   +    +   +   +   +    +   +   +   +    +   +   +   +    
G|----------------|5-5-5-------*9--|----------------|----------------|
D|--------/-------|----------------|/-------/-------|/---------------|
A|7---7--6777-7-x-|------7---7-7--6|777-7--6777-7--6|7-777-----7-7---|
E|----------------|----------------|----------------|----------------|

* this note is a quick hammer -> 8h9

Verse 3:

  G                                D
  +       +       +       +        +       +       +       +
G|----------------------------7---|------------------------x-x-7---|
D|5-----------------------5-------|7-------------------------------|
A|--------------------5-----------|--------------------------------|
E|------------------3-------------|--------------------------------|

  Em                               Bm
  +       +       +       +        +       +       +       +
G|--------------------911~--------|--------------11----------------|
D|9--------------------/----------|9-------------------9---7---9---|
A|--------------------------------|--------------------------------|
E|--------------------------------|--------------------------------|

  G                                D
  +       +       +       +        +       +       +       +
G|--------------------------------|--------------------7-------7---|
D|5-----------------------5-------|7-----------------------7-------|
A|--------------------5-----------|--------------------------------|
E|------------------3-------------|--------------------------------|

  Em                               Bm
  +       +       +       +        +       +       +       +
G|--------------------911-9\--7-9-|--------7---911-9-7-9---9-7-----|
D|9--------------------/----------|9---7/9------/--------------9-7-|
A|--------------------------------|--------------------------------|
E|--------------------------------|--------------------------------|

  G                                D
  +       +       +       +        +       +       +       +
G|--------------------------------|--------------------7-------7---|
D|5-----------------------5-------|7-------------7-7-------7-------|
A|--------------------5-----------|--------------------------------|
E|------------------3-------------|--------------------------------|

  Em                               Bm
  +       +       +       +        +       +       +       +
G|--------------x-911-9---9\--7-9-|--------------7/9-7-------------|
D|9----------------/--------------|9-------9-----------9---9\\\\\\\|
A|--------------------------------|--------------------------------|
E|--------------------------------|--------------------------------|

Pre-Chorus 3:
  
  Em      G        D       C        Em      G
  +   +   +   +    +   +   +   +    +   +   +   + 
G|----------------|----------------|----------------|
D|----------5-5--5|x7-7--7---------|---------x5-5---|
A|7---7--7-x------|---------x7-----|7---7--7--------|
E|----------------|-------------07-|----------------|

  D
  +   +   +   +    +   +   +   + 
G|----------------|----------------|
D|----------------|----------------|
A|5---5--05-5----0|5-505-50505-5---|
E|----------------|----------------|

Chorus:

  E                C       E        E                C       E
  +   +   +   +    +   +   +   +    +   +   +   +    +   +   +   +    
G|----------------|5-5-------------|----------------|5-5-5-----------|
D|--------/-------|----------------|--------/-------|----------------|
A|7---7--6777-7-x-|------7---7-xx6-|7---7--6777-7-x-|------7---7-xx6-|
E|----------------|----------------|----------------|----------------|

  E                C       E        E
  +   +   +   +    +   +   +   +    +   +   +   +    +   +   +   +    
G|----------------|5-5-5--------9--|-----9-----x----|----------------|
D|--------/-------|----------------|/-------/-------|/---------------|
A|7---7--6777-7-x-|------7---7-7--6|777-7--6777-7--6|7-777-7---7-7-7-|
E|----------------|----------------|----------------|----------------|

Ending:

  E       F#       G#m              E       F#       G#m
  +   +   +   +    +   +   +   +    +   +   +   +    +   +   +   +    
G|----------------|----------------|----------------|----------4-----|
D|2---2--x4---4---|6---6---6---6--x|2---2--x4---4---|6---6--66---6-4-|
A|--2-------4-----|--6-------6-----|--2-------4---4-|--6-------------|
E|----------------|----------------|----------------|----------------|

  E       F#       G#m     F#       E                Eb
  +   +   +   +    +   +   +   +    +   +   +   +    +   +   +   +    
G|----------------|----------------|----------------|8-888-88888-8-8-|
D|2---2--x4---4--x|6---6---4---4---|2---2--2222-2-xx|/---------------|
A|--2-------4-----|--6-------4-----|----------------|----------------|
E|----------------|----------------|----------------|----------------|

  E       F#       G#m              E       F#       G#m
  +   +   +   +    +   +   +   +    +   +   +   +    +   +   +   +    
G|----------------|------4---------|----------------|-----------4----|
D|2---2---4---4--x|6---6-----6-4-1-|2---2--x4---4--x|6---6---466--64-|
A|--2-------4-----|--6-------------|--2-------4-----|--6----6-h------|
E|----------------|----------------|----------------|----------------|

  E       F#       G#m     F#       E
  +   +   +   +    +   +   +   +    +   +   +   +    +   +   +   +    
G|----------------|----------------|----------------|----------------|
D|2---2--x4---4---|6---6---4---4---|2-2-2-22-22-2-2-|2-2-2---2-2-2-2-|
A|--2-------4-----|----------------|----------------|-----2---2------|
E|----------------|----------------|----------------|------0---------|

  E       F#       G#m              E       F#       G#m
  +   +   +   +    +   +   +   +    +   +   +   +    +   +   +   +    
G|----------------|----------------|----------------|-------444------|
D|2---2--x4---4---|6---6---6-6---4-|2---2--x4---4---|6---466---66464-|
A|--2-------4-----|--6----6-6--6---|--2-------4-----|-----h-------h--|
E|----------------|----------------|----------------|----------------|

  E       F#       G#m              E       F#       G#m
  +   +   +   +    +   +   +   +    +   +   +   +    +       +       +       +    
G|----------------|--------4-464---|----------------|------------6---6-8---8-11--11--|
D|2---2---4---4---|6---6-46---h-64-|2---2--x4---4---|6---6-9---9---------------------|
A|--2-------4-----|--6----h--------|--2-------4-----|--------------------------------|
E|----------------|----------------|----------------|--------------------------------|

  E       F#       G#m              E       F#       G#m
  +   +   +   +    +   +   +   +    +   +   +   +    +   +   +   +    
G|----------------|----------------|----------------|----------4-----|
D|2---2---4-------|------4466--464-|2---2--x4---4--x|6---6--6---6-464|
A|--2-------4-----|----46--/-46----|--2-------4-----|--6--6--6-------|
E|------------2---|4-4--h-----h----|----------------|----------------|

  E       F#       G#m              E
  +   +   +   +    +   +   +   +    +   +   +   +    +   +   +   +    
G|----------------|------4---6-4---|----------------|----------------|
D|2---2--x4---4--x|6---6--------64-|2~--------------|----------------|
A|--2-------4-----|--6-------------|----------------|----------------|
E|----------------|----------------|----------------|----------------|



***********************************************************
  -   -   -   -   -    ·+---------+· -   -   -   -   -   -
 / \ / \ / \ / \ / \ / +| 14. HEY |+  \ / \ / \ / \ / \ / \
-   -   -   -   -   -  ·+---------+·   -   -   -   -   -   
***********************************************************

Verse:

   Cm               Bb               Ab               
   +   +   +   +    +   +   +   +    +   +   +   +    +   +   +   +    
G||12--------12----|12--------12----|12--------13----|12--------12----|
D|.10--------13----|----------13----|----------------|----------------|
A|.----------------|13--------------|11--------11----|11--------13----|
E||----------------|----------------|----------------|----------------|

                                                     *_____.1.______
  Cm               Bb               Ab                              \
  +   +   +   +    +   +   +   +    +   +   +   +    +   +   +   +       
G|12--------12----|12--------12----|12--------13----|12--13--12--12--||
D|10--------13----|----------13----|----------------|----------------.|
A|----------------|13--------------|11--------11----|11--11--11--13--.|
E|----------------|----------------|----------------|----------------||

  *______.2._____
                 \
  +   +   +   +   
G|12--12--12--1212|
D|----13----------|
A|11------11--1313|
E|----------------|

 * Change the ending .1. to ending .2. the last verse after the chorus.

Chorus:
                                                      _______X_______
                                                                     \
   Cm               Bb               F                Eb
   +   +   +   +    +   +   +   +    +   +   +   +    +   +   +   +    
G||8---------7-----|10--------8-----|12--------12----|12--------12----||
D|.----------------|----------------|----------------|----------------.|
A|.----------6-----|----------6-----|----------------|----------------.|
E||8---------------|6---------------|13--------13----|11--------11----||

  Chorus End 1 __      _________Chorus End 2 _________
                 \                                    \
  +   +   +   +        +       +       +       +    
G|12--------------|   |12------------------------------|
D|----------------|   |--------------------------------|
A|----------------|   |--------------------------------|
E|11--------------|   |11--11--11--11--11--11--11--11--|


Bridge:

  F                                 Eb
  +   +   +   +    +   +   +   +    +   +   +   +    +   +   +   + 
G|----10-------10-|----10----------|----------------|----------------|
D|----------------|------------10--|----------------|--8-------------|
A|8-----8-8-----8-|8-8-----------8-|6-----6-6-6---6-|6-------6---6-6-|
E|----------------|----------------|----------------|----------------|

  Db                                Ab               Bb
  +   +   +   +    +   +   +   +    +   +   +   +    +   +   +   + 
G|----------------|----------------|----------------|----------------|
D|----------------|----------------|----------------|----------------|
A|4-----4-4-4---4-|4-4-4---4---4---|----------------|----------------|
E|----------------|----------------|4-----4-4---4---|--6-6-6-6-6-6---|

  F                                 Eb
  +   +   +   +    +   +   +   +    +   +   +   +    +   +   +   + 
G|----10------10--|----10----10----|----------------|----------------|
D|----------------|--10--------10--|----------------|----------------|
A|8-----8-8-----8-|8-------8-------|6-----6-6-6---6-|6--6---6----6-6-|
E|----------------|----------------|----------------|----------------|

  Db                                Ab               
  +   +   +   +    +   +   +   +    +   +   +   +    +   +   +   + 
G|------------6---|----------------|----------------|----------------|
D|----------------|----------------|----------------|----------------|
A|4-----4-4-4---4-|4-4-----4---4-4-|----------------|----------------|
E|----------------|----------------|4-----4-4-----4-|4-4-----4---4---|

  Bb
  +   +   +   +    +   +   +   +    
G|----------------|----------------|
D|----------------|----------------|
A|----------------|----------------|
E|6-----6-6-----6-|6-------6---x6--|

Song estructure:

Verse (x5)
Chorus (x4), last time replace X with Chorus End 1.
Verse (x4)
Chorus (x6), last time replace X with Chorus End 2.
Bridge.
Verse (till end) + 

  Cm            
G|12~-------------|
D|10~-------------|
A|----------------|
E|----------------|

**********************************************************************
**********************************************************************
**********************************************************************

     __   _      __      __      _____   _____   _____
    /  | / |    /  |    /  `\   / ___/  / __ /  (  __/
   /   |/  |   / /||   / /) /  //      / / //   \ \
  / /|   /||  / /^||  / /||   //___   / / //  ___) )
 / / |  / || / /  || / / ||  /    /  /  ^^/  /    / 
 ^^^^^^^^^^^^^^^^^^^^^^^^^^^^^^^^^^^^^^^^^^^^^^^^^
comments
print report bad tab
31 comments total. Showing first comments.
0 reply
Felas_kevin wrote on June 20 2006, 05:35 am

well, i gave you 4 stars for the effort, but it really looks like you probably based mosted of this off tabs that were already on the site. It looks like you just reposition the notes to different places on the neck seeing as some of your fingerings are wierd on some songs.

0 reply
marcrow wrote on June 20 2006, 06:07 am

Hi, Felas. You are wrong if you think so. If you compare my tabs with other tabs you can see that there are a lot of fills, notes, etc. that don't coincide with the other tabs, and put each note in the correct time sometimes is harder than make a new tab. Maybe you think the position of the fingers is not the most comfortable, but the tab you see is exactly the way i play the song, anyway notes are notes, if they are correct you can copy the tab to you computer and transfer the notes to a position more comfortable for you. Anyway thank you for the 4 stars.

0 reply
SpazGK wrote on June 20 2006, 01:08 pm

Once again, great job man!

I want to post or [tab]
guest
You may want to rate the tab now too:
select rating
Please do not post tabs as comments. Select "correction" instead!