Oops, an error
Loading. Please wait.

Wet Sand Tab

ver2
ver2
More versions @911Tabs.com
17,671 views 90 this week
3 commentsread comments
1 2 3 4 5
excellent!
x 9
Autoscroll
+/-
esc
set tempo
stop
Contributor
Difficulty
intermediate
Hey! There's an official Ultimate Guitar app which is ideal
for learning songs when you're away from computer. Get the app
WARNING: You are trying to view
                                    content from Ultimate-Guitar.com
                                    in an unauthorized application,
                                    which is prohibited.

                                    Please use an official Ultimate
                                    Guitar Tabs application for iPhone,
                                    iPad or Android to access legitimate
                                    chords, guitar, bass, and drum tabs
                                    from Ultimate-Guitar.com database.

                                    Type "ultimate guitar tabs" in Apple
                                    App Store's or Android Market's
                                    search to find the application.
                                    WET SAND
                      As recorded by Red Hot Chili Peppers
                     (From the 2006 Album STADIUM ARCADIUM)

Words and Music by Red Hot Chili Peppers
Transcribed by Floyd Cribb

           G                    D                   Em                   Bm
      3 2 0 0 3 3          x x 0 2 3 2          0 2 2 0 0 0          x 2 4 4 3 2

           E                   E5                  EVII                  F#
      0 2 2 1 0 0          x 7 9 9 x x          x 7 9 9 9 7          2 4 4 3 2 2

          G#m                  Eb
      4 6 6 4 4 4          x 6 8 8 8 6

Gtr I (E A D G B E) - 'Gtr. 1'
Gtr II (E A D G B E) - 'Gtr. 2'
Gtr III (E A D G B E) - 'Gtr. 3'
Gtr IV (E A D G B E) - 'Gtr. 4'
Gtr V (E A D G B E) - 'Gtr. 5'

 Intro
  Q=81
  G                    D                    Em
 4/4
  Gtr I
  Q  E. E S E. S S S   Q  E. E S E. S S S   S S E E. E S Q  E
|----3--3-3-3--3-3-3-|----2--2-2-2--2-2-2-|-------0--0-0-0---------|
|----3--3-3-3--3-3-3-|----3--3-3-3--3-3-3-|-------0--0-0-0---------|
|----0--0-0-0--0-0-0-|----2--2-2-2--2-2-2-|-------0--0-0-0---------|
|----0--0-0-0--0-0-0-|----0--0-0-0--0-0-0-|-----2-2--2-2-2---------|
|-2--2------2----2---|-0--0------0----0---|-0h2-2-2--2-2-2--5b5.5p=|
|-3--3------3--------|-0--0---------------|-------0--0-0-0---------|


                        Verse 1
  Bm                     G                       D
                                     |-3-|                   |-3-|
  Q  E. E S S S S S E    Q  E. E S E S S S S S   Q  E. S E E S S S S S
|----2--2-2-----------||----3--3-3-3-----------|----2--2-2-2------------|
|----3--3-3-----------||----3--3-3-3-----------|----3--3-3-3------------|
|----4--4-4-----------||----0--0-0-0-----------|----2--2-2-2------------|
|----4--4-4-----------||----0--0-0-0-0h2p0-----|-0--0--0-0-0-0-2p0------|
|-2--2--2---2-5p2-----||----2--2---2-------2p0-|-0--0--0---0-------2p0--|
|-----------------5-2-||-3--3--3---3-----------|----0--0----------------|


  Em                   Bm                      G
  Q  E. E S Q  E       Q  E. E S S S S S S S   Q  E. E S E S S S S
|-------0-0-0--------|----2--2-2-2-----------|----3--3-3-3---------|
|-------0-0-0--------|----3--3-3-3-----------|----3--3-3-3---------|
|----0--0-0-0--------|----4--4-4-4-----------|----0--0-0-0---------|
|----2--2-2-2--------|----4--4-4-4---------2-|----0--0-0-0-----2-5-|
|-2--2--2-2-2--5b5.5p|=2--2--2---2-----2h5---|----2--2---2-2-5-----|
|----0--0-0-0--------|-------------2-3-------|-3--3--3---3---------|


  D                     Em                   Bm
  Q  E. E S E S S S S   Q  E. E S E  E S S    Q  E. E S Q.
|----2--2-2-2---------|-------0-0-0--------|-----2--2-2-2----|
|----3--3-3-3---------|-------0-0-0--------|-----3--3-3-3----|
|----2--2-2-2---------|----0--0-0-0--------|-----4--4-4-4----|
|-0--0--0-0-0---------|----2--2-2-2----2---|-----4--4-4-4----|
|-0--0--0---0---2-4-5-|-2--2--2-2-2-/5-----|--2--2--2---2----|
|----0--0-----3-------|----0--0-0-0------3-|-----------------|


  G                   D                   Em                  Bm
  Gtr I
  Q  E. E S E E S S   Q  E. E S E E S S   Q  E. E S E E S S   Q  E. E S E Q
  |  |  | | | | | |   |  |  | | |   | |   |  |  | | | | | |   |  |  | | | |
  /  /  / / / / / /   /  /  / / /   / /   /  /  / / / / / /   /  /  / / / /

  Gtr II
  W                   W                   W                   W
|-------------------|-------------------|-------------------|-----------------|
|-------------------|-------------------|-------------------|-----------------|
|-------------------|-------------------|-------------------|-----------------|
|-------------------|-------------------|-------------------|-----------------|
|-------------------|-------------------|-------------------|-----------------|
|-------------------|-------------------|-------------------|-----------------|


    G                    D
     Q  E. E S E E S S    Q  E. E S E E S S
     |  |  | | | | | |    |  |  | | | | | |
     /  /  / / / / / /    /  /  / / / / / /

     TP                   TP
     W                    W
||--15-----------------|-14-----------------|
||o-15-----------------|-15-----------------|
||--16-----------------|-14-----------------|
||---------------------|--------------------|
||o--------------------|--------------------|
||---------------------|--------------------|


  Em                   Bm
   Q  E. E S E E S S    Q  E. E S E Q
   |  |  | | | | | |    |  |  | | | |
   /  /  / / / / / /    /  /  / / / /

   TP                   TP
   W                    W
|-15-----------------|-14---------------||
|-17-----------------|-15--------------o||
|-16-----------------|-16---------------||
|--------------------|------------------||
|--------------------|-----------------o||
|--------------------|------------------||


   Prechorus
    Em               G
     Q        E  S S S S E E S S
     |        |  | |   | | | | |
     /        /  / /   / / / / /

     Q        E  S S S S E E S S
||---------------------7-7-7-7-7-|
||o-----------8--8-8-------------|
||-------------------------------|
||-------------------------------|
||o------------------------------|
||-------------------------------|
|
|   Gtr III
|    Q       +H.
||--10b12===(10)-----------------|
||o------------------------------|
||-------------------------------|
||-------------------------------|
||o------------------------------|
||-------------------------------|


  D               Em                     G
    S   S E E S S S S E Q       Q  E S S S S E E S S
        | | | | |   | | |       |  | | |   | | | | |
        / / / / /   / / /       /  / / /   / / / / /

    S   S E E S S S S E E S S   Q  E S S S S E E S S
|-----------------------------|----------------------|
|-------x-7-7-7-7-------------|------------8-8-8-8-8-|
|-------------------9-x-9-x-9-|-9--x-x-9-------------|
|-----------------------------|----------------------|
|-----------------------------|----------------------|
|-----------------------------|----------------------|
|
|  +W                           W
|-(10)r-----------------------|----------------------|
|-----------------------------|----------------------|
|-----------------------------|----------------------|
|-----------------------------|----------------------|
|-----------------------------|----------------------|
|-----------------------------|----------------------|


  1.                         2.
  D           Em              D
  S S E E S S S S E Q         S S E E. S S S E   Q
    | | | | |   | | |         | | | |  | | | |   |
    / / / / /   / / /         / / / /  / / / /   /

  S S E E S S S S E E S S     Q     E. S S E   S E E
|--------------------------||-------------------------|
|---7-7-7-7-7-------------o||-7-----7--7---7---7-x-7\-|
|---------------x-9-9-x-9--||-7-----7--7---7---7-x-7--|
|--------------------------||-------------------------|
|-------------------------o||-------------------------|
|--------------------------||-------------------------|


                                  Verse 2
                                   G
   S  S E E.      S S S E Q        Q  E. E S E E S S
   |  | | |       | | | | |        |  |  | | | | | |
   /  / / /       / / / / /        /  /  / / / / / /

  +Q      S  S E.     S E E E      W
|------------------------------||--------------------|
|-(7)-----7----7------7-7-7-7\-||o-------------------|
|-(7)-----7----7------7-7-7-7\-||--------------------|
|------------------------------||--------------------|
|------------------------------||o-------------------|
|------------------------------||--------------------|


  D                   Em                  Bm
  Q  E. E S E E S S   Q  E. E S E E S S   Q  E. E S E E S S
  |  |  | | | | | |   |  |  | | | | | |   |  |  | | | | | |
  /  /  / / / / / /   /  /  / / / / / /   /  /  / / / / / /

  W                   W                   W
|-------------------|-------------------|--------------------||
|-------------------|-------------------|-------------------o||
|-------------------|-------------------|--------------------||
|-------------------|-------------------|--------------------||
|-------------------|-------------------|-------------------o||
|-------------------|-------------------|--------------------||


 Prechorus
  Em            G
  Q      E  S S S S E E S S
  |      |  | |   | | | | |
  /      /  / /   / / / / /

  Q      E  S S S S E E S S
|-----------------7-7-7-7-7-|
|--------8--8-8-------------|
|---------------------------|
|---------------------------|
|---------------------------|
|---------------------------|
|
| Gtr III
| Q     +H.
|---------------------------|
|---------------------------|
|-7b9===(7)-----------------|
|---------------------------|
|---------------------------|
|---------------------------|


  D              Em                     G
   S   S E E S S S S E Q       Q  E S S S S E E S S
       | | | | |   | | |       |  | | |   | | | | |
       / / / / /   / / /       /  / / /   / / / / /

   S   S E E S S S S E E S S   Q  E S S S S E E S S
|----------------------------|----------------------|
|------x-7-7-7-8-------------|------------8-8-8-8-8-|
|------------------9-x-x-x-9-|-9--x-x-9-------------|
|----------------------------|----------------------|
|----------------------------|----------------------|
|----------------------------|----------------------|
|
| +W                           W
|----------------------------|----------------------|
|----------------------------|----------------------|
|-(7)r-----------------------|----------------------|
|----------------------------|----------------------|
|----------------------------|----------------------|
|----------------------------|----------------------|


  D
   S     S E   E. S S S E  E.   S
   |     | |   |  | | | |  |    |
   /     / /   /  / / / /  /    /

  Gtr IV
   Q          +E. S S S E.    E S
|---------------------------------|
|--7----------(7)-7-7-7-7-----7-7-|
|--7----------(7)-------7-----7-7-|
|--7----------(7)-------7-----7-7-|
|---------------------------------|
|---------------------------------|
|
|  Q          +H.
|-10b12======(10)-----------------|
|---------------------------------|
|---------------------------------|
|---------------------------------|
|---------------------------------|
|---------------------------------|


                                     Chorus
                                      E5
                                      Gtr IV
    S   S E  E.   S S S E  E.   S     Q  E. S E Q  E
    |   | |  |    | | | |  |    |     |  |  | | |  |
    /   / /  /    / / / /  /    /     /  /  x / /  /

                                      Gtr I
    E     E.    E S E   E.    E S     Q  Q    E Q  S S
|---------------------------------||--0--0----0-0--0-0--|
|---7-----7-----7-7-7---7-----7-7-||o-0--0----0-0--0-0--|
|---7-----7-----7-7-7---7-----7-7-||--1--1----1-1--1-1--|
|---7-----7-----7-7-7---7-----7-7-||--2--2----2-2--2-2--|
|---------------------------------||o-2--2----2-2--2-2--|
|---------------------------------||--0--0----0-0--0-0--|
|
|  +W                                 W
|-(10)r---------------------------||--------------------|
|---------------------------------||o-------------------|
|---------------------------------||--------------------|
|---------------------------------||--------------------|
|---------------------------------||o-------------------|
|---------------------------------||--------------------|


                                                    Interlude
                                                     G
  E Q         H    S S         E Q  S S E Q  S S     W
  | |         |    | |         | |  | | | |  | |
  / /         /    / /         / /  / / / /  / /

                                                     Gtr I
                                                                 |-3-|
  E S S S S a H    S S  3x     E Q  S S E Q  S S     Q  E. E S E S S S E
|-------------0----0-0--||-||--0-0--0-0-0-0--0-0--||----3--3-3-3---------|
|-1-1-1-1-1---0----0-0-o||-||o-0-0--0-0-0-0--0-0-o||----3--3-3-3---------|
|-0-0-0-0-0---1----1-1--||-||--1-1--1-1-1-1--1-1--||----0--0-0-0---------|
|-2-2-2-2-2-1s2----2-2--||-||--2-2--2-2-2-2--2-2--||----0--0-0-0-0h2p0---|
|-3-3-3-3-3-1s2----2-2-o||-||o-2-2--2-2-2-2--2-2-o||-2--2--2---2-------2-|
|-------------0----0-0--||-||--0-0--0-0-0-0--0-0--||-3--3--3---3---------|


  D                     Em                      Bm
              |-3-|                 |-3-|
  Q  E. S E E S S S E   Q  E. E S E S S S S S   Q  E. E S S S S S E
|----2--2-2-2---------|----0--0-0-0-----------|----2--2-2-----------||
|----3--3-3-3---------|----0--0-0-0-----------|----3--3-3-----------||
|----2--2-2-2---------|----0--0-0-0-----------|----4--4-4-----------||
|-0--0--0-0-0-0-2p0---|-2--2--2-2-2-0-2p0-----|----4--4-4-----------||
|-0--0--0---0-------2-|-2--2--2-2-2-------2-0-|-2--2--2---2-5p2-----||
|----0--0-------------|----0--0-0-0-----------|-----------------5-2-||


   Verse 3
    G                     D
    Q  E. E S E S S S S   Q  E. E S E S S S S
||-----3--3-3-3---------|----2--2-2-2---------|
||o----3--3-3-3---------|----3--3-3-3---------|
||-----0--0-0-0---------|----2--2-2-2---------|
||-----0--0-0-0-----2-5-|-0--0--0-0-0---------|
||o----2--2---2-2-5-----|-0--0--0---0---2-4-5-|
||--3--3--3---3---------|----0--0-----3-------|


  Em                   Bm
  Q  E. E S E  E S S    Q  E. E S Q  E
|-------0-0-0--------|-----2--2-2-2-------||
|-------0-0-0--------|-----3--3-3-3------o||
|----0--0-0-0--------|-----4--4-4-4-------||
|----2--2-2-2----2---|-----4--4-4-4-------||
|-2--2--2-2-2-/5-----|--2--2--2---2------o||
|----0--0-0-0------3-|---------------2----||


 Prechorus
  Em               G
  Gtr I
   Q        E  S S S S E E S S
   |        |  | |   | | | | |
   /        /  / /   / / / / /

  Gtr II
   Q        E  S S S S E E S S
|--------------------7-7-7-7-7-|
|-----------8--8-8-------------|
|------------------------------|
|------------------------------|
|------------------------------|
|------------------------------|
|
| Gtr III
|  Q       +H.
|-10b12===(10)-----------------|
|------------------------------|
|------------------------------|
|------------------------------|
|------------------------------|
|------------------------------|
|
| Gtr V
|  TP              TP
|  H               H
|------------------7-----------|
|--8---------------8-----------|
|--9---------------------------|
|------------------------------|
|------------------------------|
|------------------------------|


  D               Em                       G
    S   S E E S S S S E Q        Q   E S S S S E E S S
        | | | | |   | | |        |   | | |   | | | | |
        / / / / /   / / /        /   / / /   / / / / /

    S   S E E S S S S E E S S    Q   E S S S S E E S S
|-----------------------------|------------------------|
|-------x-7-7-7-8-------------|--------------8-8-8-8-8-|
|-------------------9-x-x-x-9-|--9---x-x-9-------------|
|-----------------------------|------------------------|
|-----------------------------|------------------------|
|-----------------------------|------------------------|
|
|  +W                            W
|-(10)r-----------------------|------------------------|
|-----------------------------|------------------------|
|-----------------------------|------------------------|
|-----------------------------|------------------------|
|-----------------------------|------------------------|
|-----------------------------|------------------------|
|
|   TP            TP             TP        TP
|   H             H             +H         H
|-----------------------------|------------7-----------|
|---7-------------8-----------|-(8)--------8-----------|
|---7-------------9-----------|-(9)--------------------|
|-----------------------------|------------------------|
|-----------------------------|------------------------|
|-----------------------------|------------------------|


  D
   S     S E   E. S S S E  E.   S
   |     | |   |  | | | |  |    |
   /     / /   /  / / / /  /    /

  Gtr IV
   Q          +E. S S S E.    E S
|---------------------------------|
|--7----------(7)-7-7-7-7-----7-7-|
|--7----------(7)-------7-----7-7-|
|--7----------(7)-------7-----7-7-|
|---------------------------------|
|---------------------------------|
|
|  Q          +H.
|-10b12======(10)-----------------|
|---------------------------------|
|---------------------------------|
|---------------------------------|
|---------------------------------|
|---------------------------------|
|
|  TP
|  W
|---------------------------------|
|-10------------------------------|
|-11------------------------------|
|---------------------------------|
|---------------------------------|
|---------------------------------|


                                     Chorus
                                      E5
                                      Gtr IV
    S   S E  E.   S S S E  E.   S      Q  E. S E Q  E
    |   | |  |    | | | |  |    |      |  |  | | |  |
    /   / /  /    / / / /  /    /      /  /  x / /  /

                                      Gtr I
    E     E.    E S E   E.    E S      Q  Q    E Q  S S
|---------------------------------||---0--0----0-0--0-0--|
|---7-----7-----7-7-7---7-----7-7-||o--0--0----0-0--0-0--|
|---7-----7-----7-7-7---7-----7-7-||---1--1----1-1--1-1--|
|---7-----7-----7-7-7---7-----7-7-||---2--2----2-2--2-2--|
|---------------------------------||o--2--2----2-2--2-2--|
|---------------------------------||---0--0----0-0--0-0--|
|
|  +W                                  W
|-(10)r---------------------------||---------------------|
|---------------------------------||o--------------------|
|---------------------------------||---------------------|
|---------------------------------||---------------------|
|---------------------------------||o--------------------|
|---------------------------------||---------------------|
|
|                                 Gtr III
|   TP                                 TP
|  +W                                  W
|---------------------------------||--12-----------------|
|-(10)----------------------------||o-12-----------------|
|-(11)----------------------------||---------------------|
|---------------------------------||---------------------|
|---------------------------------||o--------------------|
|---------------------------------||---------------------|


   E Q         H    S S          E Q  S S E Q  S S
   | |         |    | |          | |  | | | |  | |
   / /         /    / /          / /  / / / /  / /

   E S S S S a H    S S  3x      E Q  S S E Q  S S
|--------------0----0-0--||-||---0-0--0-0-0-0--0-0--||
|--1-1-1-1-1---0----0-0-o||-||o--0-0--0-0-0-0--0-0-o||
|--0-0-0-0-0---1----1-1--||-||---1-1--1-1-1-1--1-1--||
|--2-2-2-2-2-1s2----2-2--||-||---2-2--2-2-2-2--2-2--||
|--3-3-3-3-3-1s2----2-2-o||-||o--2-2--2-2-2-2--2-2-o||
|--------------0----0-0--||-||---0-0--0-0-0-0--0-0--||
|
|  TP                            TP
|  W                     3x      W
|-12---------------------||-||--12------------------||
|-12--------------------o||-||o-12-----------------o||
|------------------------||-||----------------------||
|------------------------||-||----------------------||
|-----------------------o||-||o--------------------o||
|------------------------||-||----------------------||


     Bridge
      EVII            F#
  Gtr I
      Q       E   S S Q       E   S S
      |       |   | | |       |   | |
      /       /   / / /       /   / /

  Gtr II
      S S S E   S E   S S S E   S E
|-||--0-----0---------2-----2-----------|
|-||o---0-------0-------2-------2-------|
|-||------1-------1-------3-------3-----|
|-||------------------------------------|
|-||o-----------------------------------|
|-||------------------------------------|
|
|     W
|-||------------------------------------|
|-||o-----------------------------------|
|-||------------------------------------|
|-||------------------------------------|
|-||o-----------------------------------|
|-||------------------------------------|


  G#m                             EVII            F#
  Q       E   S E S E   E   S S   Q       E   S S Q       E   S S
  |       |   | | | |   |   | |   |       |   | | |       |   | |
  /       /   / / / /   /   / /   /       /   / / /       /   / /

  S S S E   S S E S S E   S E     S S S E   S E   S S S E   S E
|-4-----4-------4-----4-----2---|-0-----0---------2-----2---------|
|---4-------4-----4-------------|---0-------0-------2-------2-----|
|-----4-------4-----4-----4-----|-----1-------1-------3-------3---|
|-------------------------------|---------------------------------|
|-------------------------------|---------------------------------|
|-------------------------------|---------------------------------|


  G#m                             EVII            F#
  Q       E   S E S E   E   S S   Q       E   S S Q       E   S S
  |       |   | | | |   |   | |   |       |   | | |       |   | |
  /       /   / / / /   /   / /   /       /   / / /       /   / /

  S S S E   S S E S S E   S E     S S S E   S E   S S S E   S E
|-4-----4-------4-----4-----2---|-0-----0---------2-----2------------|
|---4-------4-----4-------------|---0-------0-------2-------2--------|
|-----4-------4-----4-----4-----|-----1-------1-------3-------3------|
|-------------------------------|------------------------------------|
|-------------------------------|------------------------------------|
|-------------------------------|------------------------------------|


  G#m             F#              EVII
  Q       E   S S Q     E   S S   Q       E   S E S E   E   S S
  |       |   | | |     |   | |   |       |   | | | |   |   | |
  /       /   / x /     /   / x   /       /   / / / /   /   / /

  S S S E   S E S S S E S E       S S S E   S S E S S E   S E
|-4-----4-------2-----2---------|-4-----4-------4-----4---------|
|---4-------4-----2-----2-------|---5-------5-----5-------5-----|
|-----4-------4-----3-----3-----|-----4-------4-----4-------4---|
|-------------------------------|-------------------------------|
|-------------------------------|-------------------------------|
|-------------------------------|-------------------------------|


 1.                                2.
  Eb                                EVII
  Q       E   S E S E   E   S S     Q       E   S E S E   E   S S
  |       |   | | | |   |   | |     |       |   | | | |   |   | |
  /       /   / / / /   /   / /     /       /   / / / /   /   / x

  S S S E   S S E S S E   S E       S S S E   S S E S S E   S E
|-3-----3-------3-----3----------||-4-----4-------4-----4------------||
|---4-------4-----4-------4-----o||---5-------5-----5-------5--------||
|-----3-------3-----3-------3----||-----4-------4-----4-------4------||
|--------------------------------||----------------------------------||
|-------------------------------o||----------------------------------||
|--------------------------------||----------------------------------||


 Guitar Solo
  EVII                    F#                     G#m
  Gtr I
   Q          E    S    S Q        E       S S     Q             E   S E     S E   E       S  S
   |          |    |    | |        |       | |     |             |   | |     | |   |       |  |
   /          /    /    / /        /       / /     /             /   / /     / /   /       /  /

  Gtr III
   S    S S E   S  E      S S S E        S E       S   S  S    E   S S E     S S E     S   E
|--0--------0-------------2-----2--------------|---4-----------4-------4---------4---------2----|
|-------0-------0-----------2------------2-----|-------4-----------4---------4------------------|
|---------1--------1----------3------------3---|----------4----------4---------4-------4--------|
|----------------------------------------------|------------------------------------------------|
|----------------------------------------------|------------------------------------------------|
|----------------------------------------------|------------------------------------------------|
|
| Gtr IV
|                                                                            ~~~~~~~~~~~~~    ~~~
|  Q.              Q.              Q              +E      Q.              S  Q        +S   S  S
|-15b16-----------15b16-----------15b16========|=(15)r---15b16-----------19p16-------(16)-19p16-|
|----------------------------------------------|------------------------------------------------|
|----------------------------------------------|------------------------------------------------|
|----------------------------------------------|------------------------------------------------|
|----------------------------------------------|------------------------------------------------|
|----------------------------------------------|------------------------------------------------|


  EVII                  F#                  G#m
    Q         E    S  S Q        E    S S    Q       E   S E      S  E    E     S  S
    |         |    |  | |        |    | |    |       |   | |      |  |    |     |  |
    /         /    /  / /        /    / /    /       /   / /      /  /    /     /  /

    S  S S E    S  E    S S S E    S  E      S S S E   S S E      S  S E     S  E
|---0------0------------2-----2-----------|--4-----4-------4-----------4--------2---------|
|------0--------0---------2--------2------|----4-------4----------4-----------------------|
|--------1---------1--------3---------3---|------4-------4-----------4-------4------------|
|-----------------------------------------|-----------------------------------------------|
|-----------------------------------------|-----------------------------------------------|
|-----------------------------------------|-----------------------------------------------|
|
|~~~~~~            ~~~                       ~~~~~~~~~~~~~~~~~~~~~
|  +Q         E    Q.            E    E      H                +E     E    S  S  S  S
|-(16)-------16p==14------------14h==16---|-11---------------(11)---11------11------------|
|-----------------------------------------|------------------------------14----14-12b14===|
|-----------------------------------------|-----------------------------------------------|
|-----------------------------------------|-----------------------------------------------|
|-----------------------------------------|-----------------------------------------------|
|-----------------------------------------|-----------------------------------------------|


  EVII                    F#                    G#m                 F#
    Q            E    S S  Q          E   S S    Q       E   S S     Q       E   S S
    |            |    | |  |          |   | |    |       |   | |     |       |   | |
    /            /    / /  /          /   / /    /       /   / x     /       /   / x

    S   S   S  E   S  E    S  S  S E    S E      S S S E   S E       S S S E   S E
|---0----------0-----------2-------2----------|--4-----4-------------2-----2---------|
|-------0----------0----------2---------2-----|----4-------4-----------2-------2-----|
|-----------1---------1----------3--------3---|------4-------4-----------3-------3---|
|---------------------------------------------|--------------------------------------|
|---------------------------------------------|--------------------------------------|
|---------------------------------------------|--------------------------------------|
|
|                                                ~~
|  +E      +Q         E    S  E.      Q          H                a  H
|------------------------------------11-------|------------------16s18---------------|
|-(12)r---(12)-------12---11s12---------------|-12-----------------------------------|
|---------------------------------------------|--------------------------------------|
|---------------------------------------------|--------------------------------------|
|---------------------------------------------|--------------------------------------|
|---------------------------------------------|--------------------------------------|


  EVII
   Q       E   S E S E   E   S S     Q        E   S E   S  E      E   S S
   |       |   | | | |   |   | |     |        |   | |   |  |      |   | |
   /       /   / / / /   /   / /     /        /   / /   /  /      /   / /

   S S S E   S S E S S E   S E       S  S S E   S S E   S  S    E   S E
|--4-----4-------4-----4---------|---4------4-------4-----------4----------|
|----5-------5-----5-------5-----|------5-------5-------5-----------5------|
|------4-------4-----4-------4---|--------4-------4--------4----------4----|
|--------------------------------|-----------------------------------------|
|--------------------------------|-----------------------------------------|
|--------------------------------|-----------------------------------------|
|
|  ~~~~~~~~~~~~~~~~~~~~~~~~~~~~~~~~~~~~~
|  W                                +H                E    Q.
|-16-----------------------------|-(16)-------------------21b23------------|
|--------------------------------|-----------------------------------------|
|--------------------------------|-----------------------------------------|
|--------------------------------|-----------------------------------------|
|--------------------------------|-----------------------------------------|
|--------------------------------|-----------------------------------------|


                          F#                     G#m
   Q          E    S    S Q        E       S S     Q             E    S    E   S   E    E    S    S
   |          |    |    | |        |       | |     |             |    |    |   |   |    |    |    |
   /          /    /    / /        /       / /     /             /    /    /   /   /    /    /    /

   S    S S E   S  E      S S S E        S E       S   S  S    E   S  S    E   S   S E    S  E
|--0--------0-------------2-----2--------------|---4-----------4-----------4---------4-------2------|
|-------0-------0-----------2------------2-----|-------4-----------4-----------4--------------------|
|---------1--------1----------3------------3---|----------4-----------4------------4------4---------|
|----------------------------------------------|----------------------------------------------------|
|----------------------------------------------|----------------------------------------------------|
|----------------------------------------------|----------------------------------------------------|
|
|  Q.              Q.              Q              +E      E      E    E.      +S   E    E    E
|-21b23-----------21b23-----------21b23========|=(21)r---21b23-------21b23r==(21)-19---21---21b23---|
|----------------------------------------------|----------------------------------------------------|
|----------------------------------------------|----------------------------------------------------|
|----------------------------------------------|----------------------------------------------------|
|----------------------------------------------|----------------------------------------------------|
|----------------------------------------------|----------------------------------------------------|


  EVII               F#                         G#m
   Q         E   S S   Q           E      S S    Q       E   S E       S E    E     S  S
   |         |   | |   |           |      | |    |       |   | |       | |    |     |  |
   /         /   / /   /           /      / /    /       /   / /       / /    /     /  /

   S S  S  E   S E     S   S  S E       S E      S S S E   S S E       S S E     S  E
|--0-------0-----------2--------2-------------|--4-----4-------4-----------4--------2-----|
|----0---------0-----------2------------2-----|----4-------4-----------4------------------|
|-------1--------1------------3-----------3---|------4-------4-----------4-------4--------|
|---------------------------------------------|-------------------------------------------|
|---------------------------------------------|-------------------------------------------|
|---------------------------------------------|-------------------------------------------|
|
|       ~~~~~~~~~~~~~~~~~~                       ~~                  ~~                ~~
|  E    Q.            +S   S  E    Q             H                a  Q        S  S  S  S
|-21---19------------(19)-18-19---21b23-------|-19---------------18h19-------18-19-18-16--|
|---------------------------------------------|-------------------------------------------|
|---------------------------------------------|-------------------------------------------|
|---------------------------------------------|-------------------------------------------|
|---------------------------------------------|-------------------------------------------|
|---------------------------------------------|-------------------------------------------|


  EVII               F#
    Q        E   S S  Q           E      S S
    |        |   | |  |           |      | |
    /        /   / /  /           /      / /

    S  S S E   S E    S  S  S  E       S E
|---0------0----------2--------2-------------|
|------0-------0---------2-------------2-----|
|--------1-------1----------3------------3---|
|--------------------------------------------|
|--------------------------------------------|
|--------------------------------------------|
|
|   ~~~~
|  +H                 S  S  S  S  Q
|-(16)---------------------------18b19-------|
|--------------------19p16-------------------|
|--------------------------18p16-------------|
|--------------------------------------------|
|--------------------------------------------|
|--------------------------------------------|


  G#m              F#                 E
   Q       E   S S  Q         Q        W           +W
   |       |   | |  |         |        |            |
   /       /   / x  /         /        /            /

   S S S E   S E    S S  S E    S E    W            W
|--4-----4----------2------2--------|-----------|--------------------*|
|----4-------4--------2---------2---|-----------|--------------------*|
|------4-------4---------3--------3-|-----------|--------------------*|
|-----------------------------------|-----------|--------------------*|
|-----------------------------------|-----------|--------------------*|
|-----------------------------------|-----------|--------------------*|
|
|  H                E    E    Q        W           +H.       +Q
|-16---------------14h==16p==14-----|-----------|--------------------*|
|-----------------------------------|-16--------|-(16)------(16)\----*|
|-----------------------------------|-----------|--------------------*|
|-----------------------------------|-----------|--------------------*|
|-----------------------------------|-----------|--------------------*|
|-----------------------------------|-----------|--------------------*|


Duration Legend
---------------
W - whole; H - half; Q - quarter; E - 8th; S - 16th; T - 32nd; X - 64th; a - acciaccatura
+ - note tied to previous; . - note dotted; .. - note double dotted
Uncapitalized letters represent notes that are staccato (1/2 duration)
Irregular groupings are notated above the duration line
Duration letters will always appear directly above the note/fret number it represents the
duration for.  Duration letters with no fret number below them represent rests.  Multi-
bar rests are notated in the form Wxn, where n is the number of bars to rest for.  Low
melody durations appear below the staff

Tablature Legend
----------------
 h   - hammer-on
 p   - pull-off
 b   - bend
 pb  - pre-bend
 r   - bend release (if no number after the r, then release immediately)
 /\  - slide into or out of (from/to "nowhere")
 s   - legato slide
 S   - shift slide
  - natural harmonic
[n]  - artificial harmonic
n(n) - tapped harmonic
 ~   - vibrato
 tr  - trill
 T   - tap
 TP  - trem. picking
 PM  - palm muting
\n/  - tremolo bar dip; n = amount to dip
 \n  - tremolo bar down
 n/  - tremolo bar up
/n\  - tremolo bar inverted dip
 =   - hold bend; also acts as connecting device for hammers/pulls
 <>  - volume swell (louder/softer)
 x   - on rhythm slash represents muted slash
 o   - on rhythm slash represents single note slash

Misc Legend
-----------
 |  - bar
||  - double bar
||o - repeat start
o|| - repeat end
*|  - double bar (ending)
 :  - bar (freetime)
 $  - Segno
 &  - Coda
Tempo markers -  = BPM(8/16=s8/s16), where s8 = swing 8ths, s16 = swing 16ths


***************************************************************************************
* Generated using Power Tab Editor by Brad Larsen - http://powertab.guitarnetwork.org *
***************************************************************************************
comments
print report bad tab
3 comments total.
-2 reply
fatstratplayer wrote on June 24 2007, 08:02 pm

non accurate

+1 reply
MinterMan22 wrote on November 22 2008, 06:27 pm

dont listen to fatstratplayer its a near perfect tab, better than the other one that has 5 stars

0 reply
getawaygman wrote on March 21 2012, 12:13 pm

ya it's definitely perfect for sure 5stars

I want to post or [tab]
guest
You may want to rate the tab now too:
select rating
Please do not post tabs as comments. Select "correction" instead!