Oops, an error
Loading. Please wait.

Wet Sand Tab

ver3
ver3
More versions @911Tabs.com
20,370 views 36 this week
1 commentread comment
1 2 3 4 5
accurate
x 9
Autoscroll
+/-
esc
set tempo
stop
Contributor
Hey! There's an official Ultimate Guitar app which is ideal
for learning songs when you're away from computer. Get the app
WARNING: You are trying to view
                                    content from Ultimate-Guitar.com
                                    in an unauthorized application,
                                    which is prohibited.

                                    Please use an official Ultimate
                                    Guitar Tabs application for iPhone,
                                    iPad or Android to access legitimate
                                    chords, guitar, bass, and drum tabs
                                    from Ultimate-Guitar.com database.

                                    Type "ultimate guitar tabs" in Apple
                                    App Store's or Android Market's
                                    search to find the application.
----------------------------------------------------------------------------
                     Wet Sand - Red Hot Chili Peppers
----------------------------------------------------------------------------

Tabbed by: PBass4
Email: jimmytaco43@yahoo.com

Tuning: Standard

This may be a long tab but I am almost sure it is correct. Also when there are multiple 
there are listed in order from top to bottom.

Intro:
        G          D                 Em            Bm
E|-------3-3-3-3----2-2-2-2-----------0-0-0-0-------2-2-2-2------------|
B|-------3-3-3-3----3-3-3-3-----------0-0-0-0-------3-3-3-3------------|
G|-------0-0-0-0----2-2-2-2-----------0-0-0-0-------4-4-4-4------------|
D|-------0-0-0-0----0-0-0-0-------2---2-2-2-2-------4-4-4-4---0--0-----|
A|-------2-2-2-2--------------0h2-----2-2-2-2--5-2----------2---2--0---|
E|-------3-3-3-3----------------------0-0-0-0------------------------3-|

Verse 1:
      G               D                 Em            Bm
E|----3-3-3-3---------2-2-2-2-----------0-0-0-0-------2-2-2-2----------|
B|----3-3-3-3---------3-3-3-3-----------0-0-0-0-------3-3-3-3----------|
G|----0-0-0-0---------2-2-2-2-----------0-0-0-0-------4-4-4-4----------|
D|----0-0-0-0-0h2-0---0-0-0-0--0h2------2-2-2-2-------4-4-4-4----------|
A|----2-2-2-2----2----------------2-0h2-2-2-2-2--5-2----------0-2-4----|
E|----3-3-3-3---------------------------0-0-0-0--------------------0-3-|

      G                 D                 Em            Bm
E|----3-3-3-3-----------2-2-2-2-----------0-0-0-0--------2-2-2-2-------|
B|----3-3-3-3-----------3-3-3-3-----------0-0-0-0--------3-3-3-3-------|
G|----0-0-0-0-----------2-2-2-2-----------0-0-0-0--------4-4-4-4-------|
D|----0-0-0-0-----------0-0-0-0-----------2-2-2-2--------4-4-4-4-------|
A|----2-2-2-2-0-2-4-5-2---------0-2-4-5-2-2-2-2-2--5\2-2---------------|
E|----3-3-3-3-----------------------------0-0-0-0----------------------|

Verse 2:
      G            D            Em           Bm
E|----3-3-3-3-3-3----2-2-2-2-2-2----0-0-0-0-0-0----2-2-2-2-2-2------|
B|----3-3-3-3-3-3----3-3-3-3-3-3----0-0-0-0-0-0----3-3-3-3-3-3------|
G|----0-0-0-0-0-0----2-2-2-2-2-2----0-0-0-0-0-0----4-4-4-4-4-4------|
D|----0-0-0-0-0-0----0-0-0-0-0-0----2-2-2-2-2-2----4-4-4-4-4-4------|
A|----2-2-2-2-2-2-------------------2-2-2-2-2-2---------------------|
E|----3-3-3-3-3-3-------------------0-0-0-0-0-0---------------------|

      G            D            Em           Bm
E|----3-3-3-3-3-3----2-2-2-2-2-2----0-0-0-0-0-0----2-2-2-2-2-2------|
B|----3-3-3-3-3-3----3-3-3-3-3-3----0-0-0-0-0-0----3-3-3-3-3-3------|
G|----0-0-0-0-0-0----2-2-2-2-2-2----0-0-0-0-0-0----4-4-4-4-4-4------|
D|----0-0-0-0-0-0----0-0-0-0-0-0----2-2-2-2-2-2----4-4-4-4-4-4------|
A|----2-2-2-2-2-2-------------------2-2-2-2-2-2---------------------|
E|----3-3-3-3-3-3-------------------0-0-0-0-0-0---------------------|

      G            D            Em           Bm
E|----3-3-3-3-3-3----2-2-2-2-2-2----0-0-0-0-0-0----2-2-2-2-2-2------|
B|----3-3-3-3-3-3----3-3-3-3-3-3----0-0-0-0-0-0----3-3-3-3-3-3------|
G|----0-0-0-0-0-0----2-2-2-2-2-2----0-0-0-0-0-0----4-4-4-4-4-4------|
D|----0-0-0-0-0-0----0-0-0-0-0-0----2-2-2-2-2-2----4-4-4-4-4-4------|
A|----2-2-2-2-2-2-------------------2-2-2-2-2-2---------------------|
E|----3-3-3-3-3-3-------------------0-0-0-0-0-0---------------------|

Pre-Chorus 1: (Guitar 1 distorted, Guitar 2, 3 clean)

      Em       G           D           Em
E|----7--7-7---10-10--10---10-10--10---7-7---------| \
B|----8--8-8---12-12--12---10-10--10---8-8---------|  \
G|----9--9-9---12-12--12---11-11--11---9-9---------|   \
D|----9--9-9---12-12--12---12-12--12---9-9---------|
A|----7--7-7---10-10--10---12-12--12---7-7---------|
E|----7--7-7---10-10--10---10-10--10---7-7---------|
 |                                               |
E|----7--7-7---10-10--10---10-10--10---7-7-------|
B|----8--8-8---12-12--12---10-10--10---8-8-------|
G|----9--9-9---12-12--12---11-11--11---9-9-------|      x3
D|----9--9-9---12-12--12---12-12--12---9-9-------|
A|----7--7-7---10-10--10---12-12--12---7-7-------|
E|----7--7-7---10-10--10---10-10--10---7-7-------|
 |                                               |
E|-----------------------------------------------|
B|----17b19-hold note----------------------------|
G|-----------------------------------------------|
D|-----------------------------------------------|   /
A|-----------------------------------------------|  /
E|-----------------------------------------------| /
 On 4th time
      Em       G           D
E|----7--7-7---10-10--10---10-10--10--10---------|
B|----8--8-8---12-12--12---10-10--10--10---------|
G|----9--9-9---12-12--12---11-11--11--11---------|
D|----9--9-9---12-12--12---12-12--12--12---------|
A|----7--7-7---10-10--10---12-12--12--12---------|
E|----7--7-7---10-10--10---10-10--10--10---------|
 |                                               |
E|----7--7-7---10-10--10---10-10-10-10-10-10-10--|
B|----8--8-8---12-12--12---10-10-10-10-10-10-10--|
G|----9--9-9---12-12--12---11-11-11-11-11-11-11--|
D|----9--9-9---12-12--12---12-12-12-12-12-12-12--|
A|----7--7-7---10-10--10---12-12-12-12-12-12-12--|
E|----7--7-7---10-10--10---10-10-10-10-10-10-10--|
 |                                               |
E|-----------------------------------------------|
B|-----------------------------------------------|
G|-----------------------------------------------|
D|-----------------------------------------------|
A|-----------------------------------------------|
E|-----------------------------------------------|

Verse 3: Same as Verse 2

Pre-Chorus 2:
     Em       G           D           Em
E|----7--7-7---10-10--10---10-10--10---7-7-------|
B|----8--8-8---12-12--12---10-10--10---8-8-------|
G|----9--9-9---12-12--12---11-11--11---9-9-------|
D|----9--9-9---12-12--12---12-12--12---9-9-------|
A|----7--7-7---10-10--10---12-12--12---7-7-------|
E|----7--7-7---10-10--10---10-10--10---7-7-------|
 |                                               |
E|----7--7-7---10-10--10---10-10--10---7-7-------|
B|----8--8-8---12-12--12---10-10--10---8-8-------|
G|----9--9-9---12-12--12---11-11--11---9-9-------|
D|----9--9-9---12-12--12---12-12--12---9-9-------|
A|----7--7-7---10-10--10---12-12--12---7-7-------|
E|----7--7-7---10-10--10---10-10--10---7-7-------|
 |                                               |
E|-----------------------------------------------|
B|----17b19-hold note----------------------------|
G|-----------------------------------------------|
D|-----------------------------------------------|
A|-----------------------------------------------|
E|-----------------------------------------------|

     Em       G           D
E|----7--7-7---10-10--10---10-10--10--10---------|
B|----8--8-8---12-12--12---10-10--10--10---------|
G|----9--9-9---12-12--12---11-11--11--11---------|
D|----9--9-9---12-12--12---12-12--12--12---------|
A|----7--7-7---10-10--10---12-12--12--12---------|
E|----7--7-7---10-10--10---10-10--10--10---------|
 |                                               |
E|----7--7-7---10-10--10---10-10-10-10-10-10-10--|
B|----8--8-8---12-12--12---10-10-10-10-10-10-10--|
G|----9--9-9---12-12--12---11-11-11-11-11-11-11--|
D|----9--9-9---12-12--12---12-12-12-12-12-12-12--|
A|----7--7-7---10-10--10---12-12-12-12-12-12-12--|
E|----7--7-7---10-10--10---10-10-10-10-10-10-10--|
 |                                               |
E|-----------------------------------------------|
B|-------------------------15b17-----------------|
G|-----------------------------------------------|
D|-----------------------------------------------|
A|-----------------------------------------------|
E|-----------------------------------------------|

Chorus 1: (Guitar 1 distorted, guitar 2 clean)
    E             C    E
E|--0-0-0-0-0-0---0-0--0--0-0-0------|
B|--0-0-0-0-0-0---1-1--0--0-0-0------|
G|--1-1-1-1-1-1---0-0--1--1-1-1------|
D|--2-2-2-2-2-2---2-2--2--2-2-2------|
A|--2-2-2-2-2-2---3-3--2--2-2-2------| \
E|--0-0-0-0-0-0---0-0--0--0-0-0------|  \
 |                                   |  x3
E|--0-0-0-0-0-0---0-0--0--0-0-0------|  /
B|--0-0-0-0-0-0---1-1--0--0-0-0------| /
G|--1-1-1-1-1-1---0-0--1--1-1-1------|
D|--2-2-2-2-2-2---2-2--2--2-2-2------|
A|--2-2-2-2-2-2---3-3--2--2-2-2------|
E|--0-0-0-0-0-0---0-0--0--0-0-0------|
  then
E|-0--0-0--0--0-0--0--0-0--0--0-0----|
B|-0--0-0--0--0-0--0--0-0--0--0-0----|
G|-0--0-0--0--0-0--0--0-0--0--0-0----|
D|-2--2-2--2--2-2--2--2-2--2--2-2----|
A|-0--0-0--0--0-0--0--0-0--0--0-0----|
E|-0--0-0--0--0-0--0--0-0--0--0-0----|

 Verse 4: (with Flange)
      G               D                 Em            Bm
E|----3-3-3-3---------2-2-2-2-----------0-0-0-0-----------2-2-2-2------|
B|----3-3-3-3---------3-3-3-3-----------0-0-0-0-----------3-3-3-3------|
G|----0-0-0-0---------2-2-2-2-----------0-0-0-0-----------4-4-4-4------|
D|----0-0-0-0-0h2-0---0-0-0-0--0h2------2-2-2-2-----------4-4-4-4------|
A|----2-2-2-2----2----------------2-0h2-2-2-2-2-2-5\2-0h2--------------|
E|----3-3-3-3---------------------------0-0-0-0------------------------|
      G                 D                 Em            Bm
E|----3-3-3-3-----------2-2-2-2-----------0-0-0-0--------2-2-2-2-------|
B|----3-3-3-3-----------3-3-3-3-----------0-0-0-0--------3-3-3-3-------|
G|----0-0-0-0-----------2-2-2-2-----------0-0-0-0--------4-4-4-4-------|
D|----0-0-0-0-----------0-0-0-0-----------2-2-2-2--------4-4-4-4-------|
A|----2-2-2-2-0-2-4-5-2---------0-2-4-5-2-2-2-2-2--5\2-2---------------|
E|----3-3-3-3-----------------------------0-0-0-0----------------------|
      G                 D                 Em            Bm
E|----3-3-3-3-----------2-2-2-2-----------0-0-0-0--------2-2-2-2-------|
B|----3-3-3-3-----------3-3-3-3-----------0-0-0-0--------3-3-3-3-------|
G|----0-0-0-0-----------2-2-2-2-----------0-0-0-0--------4-4-4-4-------|
D|----0-0-0-0-----------0-0-0-0-----------2-2-2-2--------4-4-4-4-------|
A|----2-2-2-2-0-2-4-5-2---------0-2-4-5-2-2-2-2-2--5\2-2---------------|
E|----3-3-3-3-----------------------------0-0-0-0----------------------|

Pre-Chorus 3: Same as pre-chorus 2 but guitar 3 goes like
E|----------12-12-12-12-12-12-12-12--------------|
B|--17b19---17-17-17-17-17-17-17-17--------------| Note: that is tremolo
G|-----------------------------------------------| picked
D|-----------------------------------------------|
A|-----------------------------------------------|
E|-----------------------------------------------|

Chorus 2: Same as Chorus one but has tremolo picking from pre-chorus 3

Bridge: (Guitar 1, 3 Distorted, guitar 2 clean)
      E        F#       G#m
E|----0--0-0---2--2-2---4--4-4---4--4-4------------|
B|----0--0-0---2--2-2---4--4-4---4--4-4------------|
G|----1--1-1---3--3-3---4--4-4---4--4-4------------|
D|----2--2-2---4--4-4---6--6-6---6--6-6------------|
A|----2--2-2---4--4-4---6--6-6---6--6-6------------| \
E|----0--0-0---2--2-2---4--4-4---4--4-4---|     | -|  x2
E|----0-0--0---2-2--2---4-4-4-4-4-4-4-4-4----------|
B|----0-0--0---2-2--2---4-4-4-4-4-4-4-4-4----------| /
G|----1-1--1---3-3--3---4-4-4-4-4-4-4-4-4----------|
D|----2-2--2---4-4--4---6-6-6-6-6-6-6-6-6----------|
A|----2-2--2---4-4--4---6-6-6-6-6-6-6-6-6----------|
E|----0-0--0---2-2--2---4-4-4-4-4-4-4-4-4----------|

      E        F#       G#m         F#       E
E|----0-0--0---2-2--2---4-4-4-4-4---2-2--2---0-0--0-|
B|----0-0--0---2-2--2---4-4-4-4-4---2-2--2---0-0--0-|
G|----1-1--1---3-3--3---4-4-4-4-4---3-3--3---1-1--1-|
D|----2-2--2---4-4--4---6-6-6-6-6---4-4--4---2-2--2-|
A|----2-2--2---4-4--4---6-6-6-6-6---4-4--4---2-2--2-| \
E|----0-0--0---2-2--2---4-4-4-4-4---2-2--2---0-0--0-|
 |                                                  |  keep playing E
E|----0--0-0---2--2-2---4--4-4------2--2-2---0-0--0-|
B|----0--0-0---2--2-2---4--4-4------2--2-2---0-0--0-| /
G|----1--1-1---3--3-3---4--4-4------3--3-3---1-1--1-|
D|----2--2-2---4--4-4---6--6-6------4--4-4---2-2--2-|
A|----2--2-2---4--4-4---6--6-6------4--4-4---2-2--2-|
E|----0--0-0---2--2-2---4--4-4------2--2-2---0-0--0-|

When John starts singing
      E        F#       G#m
E|----0--0-0---2--2-2---4--4-4---4--4-4-------------|
B|----0--0-0---2--2-2---4--4-4---4--4-4-------------|
G|----1--1-1---3--3-3---4--4-4---4--4-4-------------|
D|----2--2-2---4--4-4---6--6-6---6--6-6-------------|
A|----2--2-2---4--4-4---6--6-6---6--6-6-------------| \
E|----0--0-0---2--2-2---4--4-4---4--4-4-------------|  \
 |                                                  |  x2
E|----7-7-7-7---9--9--9--9---11-11-11-11-11-11-11-11|  /
B|----9-9-9-9---11-11-11-11--12-12-12-12-12-12-12-12| /
G|----9-9-9-9---11-11-11-11--13-13-13-13-13-13-13-13|
D|----9-9-9-9---11-11-11-11--13-13-13-13-13-13-13-13|
A|----7-7-7-7---9--9--9--9---11-11-11-11-11-11-11-11|
E|----7-7-7-7---9--9--9--9---11-11-11-11-11-11-11-11|
      E        F#       G#m         F#       E
E|----0--0-0---2--2-2---4--4-4------2--2-2---0-0--0-0-0-0-0-0-0-|
B|----0--0-0---2--2-2---4--4-4------2--2-2---0-0--0-0-0-0-0-0-0-|
G|----1--1-1---3--3-3---4--4-4------3--3-3---1-1--1-1-1-1-1-1-1-|
D|----2--2-2---4--4-4---6--6-6------4--4-4---2-2--2-2-2-2-2-2-2-|
A|----2--2-2---4--4-4---6--6-6------4--4-4---2-2--2-2-2-2-2-2-2-| \
E|----0--0-0---2--2-2---4--4-4------2--2-2---0-0--0-0-0-0-0-0-0-|  \
 |                                                  |         keep playing E
E|----7-7-7-7---9--9--9--9---11-11-11-11---9--9--9--9---7-7-7-7-|  /
B|----9-9-9-9---11-11-11-11--12-12-12-12---11-11-11-11--9-9-9-9-| /
G|----9-9-9-9---11-11-11-11--13-13-13-13---11-11-11-11--9-9-9-9-|
D|----9-9-9-9---11-11-11-11--13-13-13-13---11-11-11-11--9-9-9-9-|
A|----7-7-7-7---9--9--9--9---11-11-11-11---9--9--9--9---7-7-7-7-|
E|----7-7-7-7---9--9--9--9---11-11-11-11---9--9--9--9---7-7-7-7-|

Solo(w/ heavy distortion) and with second half of bridge in backround
E|-----------------19-----19------------------------------------------|
B|-19b-19b-19b-19b----19b----19b-19b-19-19br-19br-16--14h16--14h16-14-|
G|--------------------------------------------------------------------|
D|--------------------------------------------------------------------|
A|--------------------------------------------------------------------|
E|--------------------------------------------------------------------|

E|-----------------11----16b-14h16--16--16-16--16--16-16--21b-21b-21b-|
B|-14\12--12-11h12----12----------------------------------------------|
G|--------------------------------------------------------------------|
D|--------------------------------------------------------------------|
A|--------------------------------------------------------------------|
E|--------------------------------------------------------------------|

E|-21b-19h21-19\18-18/19-21brp19--19-18h19-21b-19--18h19-18h19-18-----|
B|--------------------------------------------------------------------|
G|--------------------------------------------------------------------|
D|--------------------------------------------------------------------|
A|--------------------------------------------------------------------|
E|--------------------------------------------------------------------|

E|-18\16-16--16----19b-16--14-16-14-----------------------------------|
B|--------------19------------------16--16b~~~~~~\--------------------|
G|--------------------------------------------------------------------|
D|--------------------------------------------------------------------|
A|--------------------------------------------------------------------|
E|--------------------------------------------------------------------|

| b  bend
| /  slide up
| \  slide down
| h  hammer-on
| p  pull-off
| ~  vibrato
| x  Mute note
comments
print report bad tab
1 comment total.
0 reply
sunburst_strat4 wrote on November 17 2007, 12:17 am

finally a good tab for one of the best rhcp songs. 5 stars

I want to post or [tab]
guest
You may want to rate the tab now too:
select rating
Please do not post tabs as comments. Select "correction" instead!