Oops, an error
Loading. Please wait.

New Noise Tab

ver5
ver5

Whole song

Interactive

More versions @911Tabs.com
2,902 views 12 this week
1 commentread comment
1 2 3 4 5
excellent!
x 4
Autoscroll
+/-
esc
set tempo
stop
Contributor
Hey! There's an official Ultimate Guitar app which is ideal
for learning songs when you're away from computer. Get the app
WARNING: You are trying to view
                                    content from Ultimate-Guitar.com
                                    in an unauthorized application,
                                    which is prohibited.

                                    Please use an official Ultimate
                                    Guitar Tabs application for iPhone,
                                    iPad or Android to access legitimate
                                    chords, guitar, bass, and drum tabs
                                    from Ultimate-Guitar.com database.

                                    Type "ultimate guitar tabs" in Apple
                                    App Store's or Android Market's
                                    search to find the application.
Artist: Refused
Song: New Noise

Tuning: Drop-D
      : DADGBe





 e|----------------------------------------------------------------|
 B|--5-5-5-5-5---5-5-5-5-5---5-5-5-8-5---5-5-5-5-5---5-5-5-5-5---5-|
 G|7-----------7-----------7-----------7-----------7-----------7---|
 D|----------------------------------------------------------------|
 A|--guitar 1------------------------------------------------------|
 D|----------------------------------------------------------------|



 e|------------------------------------------------0-0-0-0-0-0-0-0-|
 B|7-5---5-5-5-5-5---5-5-5-5-5---5-6-5---5-5-5-5-5-5-5-5-5-5-5-5-5-|
 G|----7-----------7-----------7-------7---------------------------|
 D|----------------------------------------------------------------|
 A|----------------------------------------------------------------|
 D|----------------------------------------------------------------|



 e|----------------------------------------------------------------|
 B|--5-5-5-5-5---5-5-5-5-5---5-5-5-8-5---5-5-5-5-5---5-5-5-5-5---5-|
 G|7-----------7-----------7-----------7-----------7-----------7---|
 D|----------------------------------------------------------------|
 A|----------------------------------------------------------------|
 D|----------------------------------------------------------------|



 e|------------------------------------------------0-0-0-0-0-0-0-0-|
 B|7-5---5-5-5-5-5---5-5-5-5-5---5-6-5---5-5-5-5-5-5-5-5-5-5-5-5-5-|
 G|----7-----------7-----------7-------7---------------------------|
 D|----------------------------------------------------------------|
 A|----------------------------------------------------------------|
 D|----------------------------------------------------------------|



 e|----------------------------------------------------------------|
 B|--5-5-5-5-5---5-5-5-5-5---5-5-5-8-5---5-5-5-5-5---5-5-5-5-5---5-|
 G|7-----------7-----------7-----------7-----------7-----------7---|
 D|----------------------------------------------------------------|
 A|----------------------------------------------------------------|
 D|----------------------------------------------------------------|



 e|------------------------------------------------0-0-0-0-0-0-0-0-|
 B|7-5---5-5-5-5-5---5-5-5-5-5---5-6-5---5-5-5-5-5-5-5-5-5-5-5-5-5-|
 G|----7-----------7-----------7-------7---------------------------|
 D|----------------------------------------------------------------|
 A|----------------------------------------------------------------|
 D|----------------------------------------------------------------|



 e|----------------------------------------------------------------|
 B|--5-5-5-5-5---5-5-5-5-5---5-5-5-8-5---5-5-5-5-5---5-5-5-5-5---5-|
 G|7-----------7-----------7-----------7-----------7-----------7---|
 D|----------------------------------------------------------------|
 A|----------------------------------------------------------------|
 D|----------------------------------------------------------------|



 e|------------------------------------------------0-0-0-0-0-0-0-0-|
 B|7-5---5-5-5-5-5---5-5-5-5-5---5-6-5---5-5-5-5-5-5-5-5-5-5-5-5-5-|
 G|----7-----------7-----------7-------7---------------------------|
 D|----------------------------------------------------------------|
 A|----------------------------------------------------------------|
 D|----------------------------------------------------------------|



 e|----------------------------------------------------------------|
 B|--5-5-5-5-5---5-5-5-5-5---5-5-5-8-5---5-5-5-5-5---5-5-5-5-5---5-|
 G|7-----------7-----------7-----------7-----------7-----------7---|
 D|----------------------------------------------------------------|
 A|----------------------------------------------------------------|
 D|----------------------------------------------------------------|
  |                                                                |
 e|----------------------------------------------------------------|
 B|--guitar 2------------------------------------------------------|
 G|----------------------------------------------------------------|
 D|----------------------------------------------------------------|
 A|----------------------------------------------------------------|
 D|0-2-2-2-2-2-0-2-3-2-0-3---------0-2-2-2-2-2-0-2-3-2-0-3---------|



 e|------------------------------------------------0-0-0-0-0-0-0-0-|
 B|7-5---5-5-5-5-5---5-5-5-5-5---5-6-5---5-5-5-5-5-5-5-5-5-5-5-5-5-|
 G|----7-----------7-----------7-------7---------------------------|
 D|----------------------------------------------------------------|
 A|----------------------------------------------------------------|
 D|----------------------------------------------------------------|
  |                                                                |
 e|----------------------------------------------------------------|
 B|----------------------------------------------------------------|
 G|----------------------------------------------------------------|
 D|----------------------------------------------------------------|
 A|----------------------------------------------------------------|
 D|0-2-2-2-2-2-0-2-3-2-0-3---------0-2-2-2-2-2-0-2-3-2-0-3---------|



[DRUM BREAKDOWN THING]



CAN I SCREAM?!!!!!!!!



 e|----------------------------------------------------------------|
 B|----------------------------------------------------------------|
 G|----------------------------------------------------------------|
 D|0-2-2-2-2-2-0-2-3-2-0-3---------0-2-2-2-2-2-0-2-3-2-0-3---------|
 A|0-2-2-2-2-2-0-2-3-2-0-3---------0-2-2-2-2-2-0-2-3-2-0-3---------|
 D|0-2-2-2-2-2-0-2-3-2-0-3---------0-2-2-2-2-2-0-2-3-2-0-3---------|
  |                                                                |
 e|----------------------------------------------------------------|
 B|----------------------------------------------------------------|
 G|----------------------------------------------------------------|
 D|0-2-2-2-2-2-0-2-3-2-0-3---------0-2-2-2-2-2-0-2-3-2-0-3---------|
 A|0-2-2-2-2-2-0-2-3-2-0-3---------0-2-2-2-2-2-0-2-3-2-0-3---------|
 D|0-2-2-2-2-2-0-2-3-2-0-3---------0-2-2-2-2-2-0-2-3-2-0-3---------|



 e|----------------------------------------------------------------|
 B|----------------------------------------------------------------|
 G|----------------------------------------------------------------|
 D|0-2-2-2-2-2-0-2-3-2-0-3---------0-2-2-2-2-2-0-2-3-2-0-----------|
 A|0-2-2-2-2-2-0-2-3-2-0-3---------0-2-2-2-2-2-0-2-3-2-0-----------|
 D|0-2-2-2-2-2-0-2-3-2-0-3---------0-2-2-2-2-2-0-2-3-2-0-----------|
  |                                                                |
 e|----------------------------------------------------------------|
 B|----------------------------------------------------------------|
 G|----------------------------------------------------------------|
 D|0-2-2-2-2-2-0-2-3-2-0-3---------0-2-2-2-2-2-0-2-3-2-0-----------|
 A|0-2-2-2-2-2-0-2-3-2-0-3---------0-2-2-2-2-2-0-2-3-2-0-----------|
 D|0-2-2-2-2-2-0-2-3-2-0-3---------0-2-2-2-2-2-0-2-3-2-0-----------|



 e|----------------------------------------------------------------|
 B|----------------------------------------------------------------|
 G|----------------------------------------------------------------|
 D|0-2-2-2-2-2-0-2-3-2-0-3---------0-2-2-2-2-2-0-2-3-2-0-3---------|
 A|0-2-2-2-2-2-0-2-3-2-0-3---------0-2-2-2-2-2-0-2-3-2-0-3---------|
 D|0-2-2-2-2-2-0-2-3-2-0-3---------0-2-2-2-2-2-0-2-3-2-0-3---------|
  |                                                                |
 e|----------------------------------------------------------------|
 B|----------------------------------------------------------------|
 G|----------------------------------------------------------------|
 D|0-2-2-2-2-2-0-2-3-2-0-3---------0-2-2-2-2-2-0-2-3-2-0-3---------|
 A|0-2-2-2-2-2-0-2-3-2-0-3---------0-2-2-2-2-2-0-2-3-2-0-3---------|
 D|0-2-2-2-2-2-0-2-3-2-0-3---------0-2-2-2-2-2-0-2-3-2-0-3---------|



 e|----------------------------------------------------------------|
 B|----------------------------------------------------------------|
 G|----------------------------------------------------------------|
 D|0-2-2-2-2-2-0-2-3-2-0-3---------0-2-2-2-2-2-0-2-3-2-0-----------|
 A|0-2-2-2-2-2-0-2-3-2-0-3---------0-2-2-2-2-2-0-2-3-2-0-----------|
 D|0-2-2-2-2-2-0-2-3-2-0-3---------0-2-2-2-2-2-0-2-3-2-0-----------|
  |                                                                |
 e|----------------------------------------------------------------|
 B|----------------------------------------------------------------|
 G|----------------------------------------------------------------|
 D|0-2-2-2-2-2-0-2-3-2-0-3---------0-2-2-2-2-2-0-2-3-2-0-----------|
 A|0-2-2-2-2-2-0-2-3-2-0-3---------0-2-2-2-2-2-0-2-3-2-0-----------|
 D|0-2-2-2-2-2-0-2-3-2-0-3---------0-2-2-2-2-2-0-2-3-2-0-----------|



 e|----------------------------------------------------------------|
 B|--5-5-5-5-5---5-5-5-5-5---5-5-5-8-5---5-5-5-5-5---5-5-5-5-5---5-|
 G|7-----------7-----------7-----------7-----------7-----------7---|
 D|----------------------------------------------------------------|
 A|----------------------------------------------------------------|
 D|----------------------------------------------------------------|



 e|------------------------------------------------0-0-0-0-0-0-0-0-|
 B|7-5---5-5-5-5-5---5-5-5-5-5---5-6-5---5-5-5-5-5-5-5-5-5-5-5-5-5-|
 G|----7-----------7-----------7-------7---------------------------|
 D|----------------------------------------------------------------|
 A|----------------------------------------------------------------|
 D|----------------------------------------------------------------|



 e|----------------------------------------------------------------|
 B|--5-5-5-5-5---5-5-5-5-5---5-5-5-8-5---5-5-5-5-5---5-5-5-5-5---5-|
 G|7-----------7-----------7-----------7-----------7-----------7---|
 D|----------------------------------------------------------------|
 A|----------------------------------------------------------------|
 D|----------------------------------------------------------------|



 e|------------------------------------------------0-0-0-0-0-0-0-0-|
 B|7-5---5-5-5-5-5---5-5-5-5-5---5-6-5---5-5-5-5-5-5-5-5-5-5-5-5-5-|
 G|----7-----------7-----------7-------7---------------------------|
 D|----------------------------------------------------------------|
 A|----------------------------------------------------------------|
 D|----------------------------------------------------------------|



 e|----------------------------------------------------------------|
 B|----------------------------------------------------------------|
 G|----------------------------------------------------------------|
 D|0-2-2-2-2-2-0-2-3-2-0-3---------0-2-2-2-2-2-0-2-3-2-0-3---------|
 A|0-2-2-2-2-2-0-2-3-2-0-3---------0-2-2-2-2-2-0-2-3-2-0-3---------|
 D|0-2-2-2-2-2-0-2-3-2-0-3---------0-2-2-2-2-2-0-2-3-2-0-3---------|
  |                                                                |
 e|----------------------------------------------------------------|
 B|----------------------------------------------------------------|
 G|----------------------------------------------------------------|
 D|0-2-2-2-2-2-0-2-3-2-0-3---------0-2-2-2-2-2-0-2-3-2-0-3---------|
 A|0-2-2-2-2-2-0-2-3-2-0-3---------0-2-2-2-2-2-0-2-3-2-0-3---------|
 D|0-2-2-2-2-2-0-2-3-2-0-3---------0-2-2-2-2-2-0-2-3-2-0-3---------|



 e|----------------------------------------------------------------|
 B|----------------------------------------------------------------|
 G|----------------------------------------------------------------|
 D|0-2-2-2-2-2-0-2-3-2-0-3---------0-2-2-2-2-2-0-2-3-2-0-----------|
 A|0-2-2-2-2-2-0-2-3-2-0-3---------0-2-2-2-2-2-0-2-3-2-0-----------|
 D|0-2-2-2-2-2-0-2-3-2-0-3---------0-2-2-2-2-2-0-2-3-2-0-----------|
  |                                                                |
 e|----------------------------------------------------------------|
 B|----------------------------------------------------------------|
 G|----------------------------------------------------------------|
 D|0-2-2-2-2-2-0-2-3-2-0-3---------0-2-2-2-2-2-0-2-3-2-0-----------|
 A|0-2-2-2-2-2-0-2-3-2-0-3---------0-2-2-2-2-2-0-2-3-2-0-----------|
 D|0-2-2-2-2-2-0-2-3-2-0-3---------0-2-2-2-2-2-0-2-3-2-0-----------|



 e|----------------------------------------------------------------|
 B|----------------------------------------------------------------|
 G|----------------------------------------------------------------|
 D|0-2-2-2-2-2-0-2-3-2-0-3---------0-2-2-2-2-2-0-2-3-2-0-3---------|
 A|0-2-2-2-2-2-0-2-3-2-0-3---------0-2-2-2-2-2-0-2-3-2-0-3---------|
 D|0-2-2-2-2-2-0-2-3-2-0-3---------0-2-2-2-2-2-0-2-3-2-0-3---------|
  |                                                                |
 e|----------------------------------------------------------------|
 B|----------------------------------------------------------------|
 G|----------------------------------------------------------------|
 D|0-2-2-2-2-2-0-2-3-2-0-3---------0-2-2-2-2-2-0-2-3-2-0-3---------|
 A|0-2-2-2-2-2-0-2-3-2-0-3---------0-2-2-2-2-2-0-2-3-2-0-3---------|
 D|0-2-2-2-2-2-0-2-3-2-0-3---------0-2-2-2-2-2-0-2-3-2-0-3---------|



 e|----------------------------------------------------------------|
 B|----------------------------------------------------------------|
 G|----------------------------------------------------------------|
 D|0-2-2-2-2-2-0-2-3-2-0-3---------0-2-2-2-2-2-0-2-3-2-0-----------|
 A|0-2-2-2-2-2-0-2-3-2-0-3---------0-2-2-2-2-2-0-2-3-2-0-----------|
 D|0-2-2-2-2-2-0-2-3-2-0-3---------0-2-2-2-2-2-0-2-3-2-0-----------|
  |                                                                |
 e|----------------------------------------------------------------|
 B|----------------------------------------------------------------|
 G|----------------------------------------------------------------|
 D|0-2-2-2-2-2-0-2-3-2-0-3---------0-2-2-2-2-2-0-2-3-2-0-----------|
 A|0-2-2-2-2-2-0-2-3-2-0-3---------0-2-2-2-2-2-0-2-3-2-0-----------|
 D|0-2-2-2-2-2-0-2-3-2-0-3---------0-2-2-2-2-2-0-2-3-2-0-----------|



 e|----------------------------------------------------------------|
 B|--5-5-5-5-5---5-5-5-5-5---5-5-5-8-5---5-5-5-5-5---5-5-5-5-5---5-|
 G|7-----------7-----------7-----------7-----------7-----------7---|
 D|----------------------------------------------------------------|
 A|----------------------------------------------------------------|
 D|----------------------------------------------------------------|



 e|------------------------------------------------0-0-0-0-0-0-0-0-|
 B|7-5---5-5-5-5-5---5-5-5-5-5---5-6-5---5-5-5-5-5-5-5-5-5-5-5-5-5-|
 G|----7-----------7-----------7-------7---------------------------|
 D|----------------------------------------------------------------|
 A|----------------------------------------------------------------|
 D|----------------------------------------------------------------|



 e|----------------------------------------------------------------|
 B|--5-5-5-5-5---5-5-5-5-5---5-5-5-8-5---5-5-5-5-5---5-5-5-5-5---5-|
 G|7-----------7-----------7-----------7-----------7-----------7---|
 D|----------------------------------------------------------------|
 A|----------------------------------------------------------------|
 D|----------------------------------------------------------------|
  |                                                                | 
 e|----------------------------------------------------------------|
 B|----------------------------------------------------------------|
 G|----------------4---------------3-------------------------------|
 D|2---------------2---------------4-------------------------------|
 A|2---------------2---------------2-------------------------------|
 D|2---------------------------------------------------------------|



 e|------------------------------------------------0-0-0-0-0-0-0-0-|
 B|7-5---5-5-5-5-5---5-5-5-5-5---5-6-5---5-5-5-5-5-5-5-5-5-5-5-5-5-|
 G|----7-----------7-----------7-------7---------------------------|
 D|----------------------------------------------------------------|
 A|----------------------------------------------------------------|
 D|----------------------------------------------------------------|
  |                                                                |
 e|----------------------------------------------------------------|
 B|----------------------------------------------------------------|
 G|----------------3---------------4-------------------------------|
 D|2---------------4---------------4-------------------------------|
 A|2---------------2---------------2-------------------------------|
 D|2---------------------------------------------------------------|


 e|----------------------------------------------------------------|
 B|----------------------------------------------------------------|
 G|4---4-4-4-4-4-4-4---4-4-4-4-2-2-3---3-3-3-3-3-3-3---3-3-3-3-3-3-|
 D|2---2-2-2-2-2-2-2---2-2-2-2-2-2-4---4-4-4-4-4-4-4---4-4-4-4-4-4-|
 A|2---2-2-2-2-2-2-2---2-2-2-2-2-2-2---2-2-2-2-2-2-2---2-2-2-2-2-2-|
 D|2---2-2-2-2-2-2-------------------------------------------------|
  |                                                                |
 e|----------------------------------------------------------------|
 B|----------------------------------------------------------------|
 G|4---4-4-4-4-4-4-4---4-4-4-4-2-2-3---3-3-3-3-3-3-3---3-3-3-3-3-3-|
 D|2---2-2-2-2-2-2-2---2-2-2-2-2-2-4---4-4-4-4-4-4-4---4-4-4-4-4-4-|
 A|2---2-2-2-2-2-2-2---2-2-2-2-2-2-2---2-2-2-2-2-2-2---2-2-2-2-2-2-|
 D|2---2-2-2-2-2-2-------------------------------------------------|



 e|----------------------------------------------------------------|
 B|----------------------------------------------------------------|
 G|4---4-4-4-4-4-4-3---3-3-3-3-3-3---------------------------------|
 D|2---2-2-2-2-2-2-4---4-4-4-4-4-4-9---9-9-9-9-9-9-9---9-9-9-9-9-9-|
 A|2---2-2-2-2-2-2-2---2-2-2-2-2-2-9---9-9-9-9-9-9-9---9-9-9-9-9-9-|
 D|2---2-2-2-2-2-2-----------------9---9-9-9-9-9-9-9---9-9-9-9-9-9-|
  |                                                                |
 e|----------------------------------------------------------------|
 B|----------------------------------------------------------------|
 G|4---4-4-4-4-4-4-3---3-3-3-3-3-3---------------------------------|
 D|2---2-2-2-2-2-2-4---4-4-4-4-4-4-9---9-9-9-9-9-9-9---9-9-9-9-9-9-|
 A|2---2-2-2-2-2-2-2---2-2-2-2-2-2-9---9-9-9-9-9-9-9---9-9-9-9-9-9-|
 D|2---2-2-2-2-2-2-----------------9---9-9-9-9-9-9-9---9-9-9-9-9-9-|



 e|----------------------------------------------------------------|
 B|----------------------------------------------------------------|
 G|4---4-4-4-4-4-4-4---4-4-4-4-2-2-3---3-3-3-3-3-3-3---3-3-3-3-3-3-|
 D|2---2-2-2-2-2-2-2---2-2-2-2-2-2-4---4-4-4-4-4-4-4---4-4-4-4-4-4-|
 A|2---2-2-2-2-2-2-2---2-2-2-2-2-2-2---2-2-2-2-2-2-2---2-2-2-2-2-2-|
 D|2---2-2-2-2-2-2-------------------------------------------------|
  |                                                                |
 e|----------------------------------------------------------------|
 B|----------------------------------------------------------------|
 G|4---4-4-4-4-4-4-4---4-4-4-4-2-2-3---3-3-3-3-3-3-3---3-3-3-3-3-3-|
 D|2---2-2-2-2-2-2-2---2-2-2-2-2-2-4---4-4-4-4-4-4-4---4-4-4-4-4-4-|
 A|2---2-2-2-2-2-2-2---2-2-2-2-2-2-2---2-2-2-2-2-2-2---2-2-2-2-2-2-|
 D|2---2-2-2-2-2-2-------------------------------------------------|



 e|----------------------------------------------------------------|
 B|----------------------------------------------------------------|
 G|4---4-4-4-4-4-4-3---3-3-3-3-3-3---------------------------------|
 D|2---2-2-2-2-2-2-4---4-4-4-4-4-4-9---9-9-9-9-9-9-9---9-9-9-9-9-9-|
 A|2---2-2-2-2-2-2-2---2-2-2-2-2-2-9---9-9-9-9-9-9-9---9-9-9-9-9-9-|
 D|2---2-2-2-2-2-2-----------------9---9-9-9-9-9-9-9---9-9-9-9-9-9-|
  |                                                                |
 e|----------------------------------------------------------------|
 B|----------------------------------------------------------------|
 G|4---4-4-4-4-4-4-3---3-3-3-3-3-3---------------------------------|
 D|2---2-2-2-2-2-2-4---4-4-4-4-4-4-9---9-9-9-9-9-9-9---9-9-9-9-9-9-|
 A|2---2-2-2-2-2-2-2---2-2-2-2-2-2-9---9-9-9-9-9-9-9---9-9-9-9-9-9-|
 D|2---2-2-2-2-2-2-----------------9---9-9-9-9-9-9-9---9-9-9-9-9-9-|




 e|----------------------------------------------------------------|
 B|----------------------------------------------------------------|
 G|----------------------------------------------------------------|
 D|7---7-7-7-7-7-7-7---7-7-7-7-7-7-5---5-5-5-5-5-5-5---5-5-5-5-5-5-|
 A|7---7-7-7-7-7-7-7---7-7-7-7-7-7-5---5-5-5-5-5-5-5---5-5-5-5-5-5-|
 D|7---7-7-7-7-7-7-7---7-7-7-7-7-7-5---5-5-5-5-5-5-5---5-5-5-5-5-5-|
  |                                                                |
 e|----------------------------------------------------------------|
 B|----------------------------------------------------------------|
 G|----------------------------------------------------------------|
 D|7---7-7-7-7-7-7-7---7-7-7-7-7-7-5---5-5-5-5-5-5-5---5-5-5-5-5-5-|
 A|7---7-7-7-7-7-7-7---7-7-7-7-7-7-5---5-5-5-5-5-5-5---5-5-5-5-5-5-|
 D|7---7-7-7-7-7-7-7---7-7-7-7-7-7-5---5-5-5-5-5-5-5---5-5-5-5-5-5-|


 e|--------------------------------|
 B|--------------------------------|
 G|--------------------------------|
 D|3---3-3---3-3---3---3---3-3-3-3-|
 A|3---3-3---3-3---3---3---3-3-3-3-|
 D|3---3-3---3-3---3---3---3-3-3-3-|
  |                                |
 e|--------------------------------|
 B|--------------------------------|
 G|--------------------------------|
 D|3---3-3---3-3---3---3---3-3-3-3-|
 A|3---3-3---3-3---3---3---3-3-3-3-|
 D|3---3-3---3-3---3---3---3-3-3-3-|



 e|----------------------------------------------------------------|
 B|----------------------------------------------------------------|
 G|----------------------------------------------------------------|
 D|0-2---------0-2---2-------------0-2---------0-2---2-------------|
 A|0-2---------0-2---2-------------0-2---------0-2---2-------------|
 D|0-2---------0-2---2-------------0-2---------0-2---2-------------|
  |                                                                |
 e|----------------------------------------------------------------|
 B|----------------------------------------------------------------|
 G|----------------------------------------------------------------|
 D|0-2---------0-2---2-------------0-2---------0-2---2-------------|
 A|0-2---------0-2---2-------------0-2---------0-2---2-------------|
 D|0-2---------0-2---2-------------0-2---------0-2---2-------------|



 e|----------------------------------------------------------------|
 B|----------------------------------------------------------------|
 G|----------------------------------------------------------------|
 D|0-2---------0-2---2-------------0-2---------0-2---2-------------|
 A|0-2---------0-2---2-------------0-2---------0-2---2-------------|
 D|0-2---------0-2---2-------------0-2---------0-2---2-------------|
  |                                                                |
 e|----------------------------------------------------------------|
 B|----------------------------------------------------------------|
 G|----------------------------------------------------------------|
 D|0-2---------0-2---2-------------0-2---------0-2---2-------------|
 A|0-2---------0-2---2-------------0-2---------0-2---2-------------|
 D|0-2---------0-2---2-------------0-2---------0-2---2-------------|



 e|----------------------------------------------------------------|
 B|----------------------------------------------------------------|
 G|----------------------------------------------------------------|
 D|0-2---------0-2---2-------------0-2---------0-2---2-------------|
 A|0-2---------0-2---2-------------0-2---------0-2---2-------------|
 D|0-2---------0-2---2-------------0-2---------0-2---2-------------|
  |                                                                |
 e|----------------------------------------------------------------|
 B|--5-5-5-5-5---5-5-5-5-5---5-5-5-8-5---5-5-5-5-5---5-5-5-5-5---5-|
 G|7-----------7-----------7-----------7-----------7-----------7---|
 D|----------------------------------------------------------------|
 A|----------------------------------------------------------------|
 D|----------------------------------------------------------------|



 e|----------------------------------------------------------------|
 B|----------------------------------------------------------------|
 G|----------------------------------------------------------------|
 D|0-2---------0-2---2-------------2-----2-----9-------------0----2|
 A|0-2---------0-2---2-------------2-----2-----9-------------0----2| (let ring)
 D|0-2---------0-2---2-------------2-----2-----9-------------0----2|
  |                                                                |
 e|------------------------------------------------0-0-0-0-0-0-0-0-|
 B|7-5---5-5-5-5-5---5-5-5-5-5---5-6-5---5-5-5-5-5-5-5-5-5-5-5-5-5-|
 G|----7-----------7-----------7-------7---------------------------|
 D|----------------------------------------------------------------|
 A|----------------------------------------------------------------|
 D|----------------------------------------------------------------|



 e|----------------------------------------------------------------|
 B|--5-5-5-5-5---5-5-5-5-5---5-5-5-8-5---5-5-5-5-5---5-5-5-5-5---5-|
 G|7-----------7-----------7-----------7-----------7-----------7---|
 D|----------------------------------------------------------------|
 A|----------------------------------------------------------------|
 D|----------------------------------------------------------------|



 e|------------------------------------------------0-0-0-0-0-0-0-0-|
 B|7-5---5-5-5-5-5---5-5-5-5-5---5-6-5---5-5-5-5-5-5-5-5-5-5-5-5-5-|
 G|----7-----------7-----------7-------7---------------------------|
 D|----------------------------------------------------------------|
 A|----------------------------------------------------------------|
 D|----------------------------------------------------------------|



 e|----------------------------------------------------------------|
 B|--5-5-5-5-5---5-5-5-5-5---5-5-5-8-5---5-5-5-5-5---5-5-5-5-5---5-|
 G|7-----------7-----------7-----------7-----------7-----------7---|
 D|----------------------------------------------------------------|
 A|----------------------------------------------------------------|
 D|----------------------------------------------------------------|



 e|------------------------------------------------0-0-0-0-0-0-0-0-|
 B|7-5---5-5-5-5-5---5-5-5-5-5---5-6-5---5-5-5-5-5-5-5-5-5-5-5-5-5-|
 G|----7-----------7-----------7-------7---------------------------|
 D|----------------------------------------------------------------|
 A|----------------------------------------------------------------|
 D|----------------------------------------------------------------|



 e|----------------------------------------------------------------|
 B|----------------------------------------------------------------|
 G|----------------------------------------------------------------|
 D|----------------------------------------------------------------|
 A|----------------------------------------------------------------|
 D|----------------------------------------------------------------|
  |                                                                |
 e|----------------------------------------------------------------|
 B|----------------------------------------------------------------|
 G|----------------------------------------------------------------|
 D|2---------------------------------------------------------------|
 A|2---------------------------------------------------------------|
 D|2---------------------------------------------------------------|
   .


 e|----------------------------------------------------------------|
 B|----------------------------------------------------------------|
 G|----------------------------------------------------------------|
 D|----------------------------------------------------------------|
 A|----------------------------------------------------------------|
 D|----------------------------------------------------------------|
  |                                                                |
 e|----------------------------------------------------------------|
 B|----------------------------------------------------------------|
 G|----------------------------------------------------------------|
 D|2---------------------------------------------------------------|
 A|2---------------------------------------------------------------|
 D|2---------------------------------------------------------------|



 e|----------------------------------------------------------------|
 B|----------------------------------------------------------------|
 G|----------------------------------------------------------------|
 D|----------------------------------------------------------------|
 A|----------------------------------------------------------------|
 D|0-2-2-2-2-2-0-2-3-2-0-3---------0-2-2-2-2-2-0-2-3-2-0-3---------|
  |                                                                |
 e|----------------------------------------------------------------|
 B|----------------------------------------------------------------|
 G|----------------------------------------------------------------|
 D|2-------------------------------2-------------------------------|
 A|2-------------------------------2-------------------------------|
 D|2-------------------------------2-------------------------------|
   .                               .



 e|-----------------------------------------------------------------|
 B|-----------------------------------------------------------------|
 G|-----------------------------------------------------------------|
 D|-----------------------------------------------------------------|
 A|-----------------------------------------------------------------|
 D|0-2-2-2-2-2-0-2-3-2-0-3----------0-2-2-2-2-2-0-2-3-2-0-----------|
  |                                                                 |
 e|-----------------------------------------------------------------|
 B|-----------------------------------------------------------------|
 G|-----------------------------------------------------------------|
 D|2--------------------------------2-------------------------------|
 A|2--------------------------------2-------------------------------|
 D|2--------------------------------2-------------------------------|
   .                                .


 e|----------------------------------------------------------------|
 B|----------------------------------------------------------------|
 G|----------------------------------------------------------------|
 D|0-2-2-2-2-2-0-2-3-2-0-3---------0-2-2-2-2-2-0-2-3-2-0-3---------|
 A|0-2-2-2-2-2-0-2-3-2-0-3---------0-2-2-2-2-2-0-2-3-2-0-3---------|
 D|0-2-2-2-2-2-0-2-3-2-0-3---------0-2-2-2-2-2-0-2-3-2-0-3---------|
  |                                                                |
 e|----------------------------------------------------------------|
 B|----------------------------------------------------------------|
 G|----------------------------------------------------------------|
 D|0-2-2-2-2-2-0-2-3-2-0-3---------0-2-2-2-2-2-0-2-3-2-0-3---------|
 A|0-2-2-2-2-2-0-2-3-2-0-3---------0-2-2-2-2-2-0-2-3-2-0-3---------|
 D|0-2-2-2-2-2-0-2-3-2-0-3---------0-2-2-2-2-2-0-2-3-2-0-3---------|



 e|----------------------------------------------------------------|
 B|----------------------------------------------------------------|
 G|----------------------------------------------------------------|
 D|0-2-2-2-2-2-0-2-3-2-0-3---------0-2-2-2-2-2-0-2-3-2-0-----------|
 A|0-2-2-2-2-2-0-2-3-2-0-3---------0-2-2-2-2-2-0-2-3-2-0-----------|
 D|0-2-2-2-2-2-0-2-3-2-0-3---------0-2-2-2-2-2-0-2-3-2-0-----------|
  |                                                                |
 e|----------------------------------------------------------------|
 B|----------------------------------------------------------------|
 G|----------------------------------------------------------------|
 D|0-2-2-2-2-2-0-2-3-2-0-3---------0-2-2-2-2-2-0-2-3-2-0-----------|
 A|0-2-2-2-2-2-0-2-3-2-0-3---------0-2-2-2-2-2-0-2-3-2-0-----------|
 D|0-2-2-2-2-2-0-2-3-2-0-3---------0-2-2-2-2-2-0-2-3-2-0-----------|



[WIERD INTERLUDE THING]



 e|----------------------------------------------------------------|
 B|----------------------------------------------------------------|
 G|----------------------------------------------------------------|
 D|0-2-2-2-2-2-0-2-3-2-0-3-----2---0-0-2-2-2-2-0-2-3-2-0-3-----2---|
 A|0-2-2-2-2-2-0-2-3-2-0-3-----2---0-0-2-2-2-2-0-2-3-2-0-3-----2---|
 D|0-2-2-2-2-2-0-2-3-2-0-3-----2---0-0-2-2-2-2-0-2-3-2-0-3-----2---|
  |                                                                |
 e|----------------------------------------------------------------|
 B|----------------------------------------------------------------|
 G|----------------------------------------------------------------|
 D|0-2-2-2-2-2-0-2-3-2-0-3-----2---0-0-2-2-2-2-0-2-3-2-0-3-----2---|
 A|0-2-2-2-2-2-0-2-3-2-0-3-----2---0-0-2-2-2-2-0-2-3-2-0-3-----2---|
 D|0-2-2-2-2-2-0-2-3-2-0-3-----2---0-0-2-2-2-2-0-2-3-2-0-3-----2---|



 e|----------------------------------------------------------------|
 B|----------------------------------------------------------------|
 G|----------------------------------------------------------------|
 D|0-0-2-2-2-2-0-2-3-2-0-3-----2---0-0-2-2-2-2-0-2-3-2-0-3-----2---|
 A|0-0-2-2-2-2-0-2-3-2-0-3-----2---0-0-2-2-2-2-0-2-3-2-0-3-----2---|
 D|0-0-2-2-2-2-0-2-3-2-0-3-----2---0-0-2-2-2-2-0-2-3-2-0-3-----2---|
  |                                                                |
 e|----------------------------------------------------------------|
 B|----------------------------------------------------------------|
 G|----------------------------------------------------------------|
 D|0-0-2-2-2-2-0-2-3-2-0-3-----2---0-0-2-2-2-2-0-2-3-2-0-3-----2---|
 A|0-0-2-2-2-2-0-2-3-2-0-3-----2---0-0-2-2-2-2-0-2-3-2-0-3-----2---|
 D|0-0-2-2-2-2-0-2-3-2-0-3-----2---0-0-2-2-2-2-0-2-3-2-0-3-----2---|



 e|----------------------------------------------------------------|
 B|----------------------------------------------------------------|
 G|----------------------------------------------------------------|
 D|0-0-2-2-2-2-0-2-3-2-0-3-----2---0-0-2-2-2-2-0-2-3-2-0-3-----2---|
 A|0-0-2-2-2-2-0-2-3-2-0-3-----2---0-0-2-2-2-2-0-2-3-2-0-3-----2---|
 D|0-0-2-2-2-2-0-2-3-2-0-3-----2---0-0-2-2-2-2-0-2-3-2-0-3-----2---|
  |                                                                |
 e|----------------------------------------------------------------|
 B|----------------------------------------------------------------|
 G|----------------------------------------------------------------|
 D|0-0-2-2-2-2-0-2-3-2-0-3-----2---0-0-2-2-2-2-0-2-3-2-0-3-----2---|
 A|0-0-2-2-2-2-0-2-3-2-0-3-----2---0-0-2-2-2-2-0-2-3-2-0-3-----2---|
 D|0-0-2-2-2-2-0-2-3-2-0-3-----2---0-0-2-2-2-2-0-2-3-2-0-3-----2---|



 e|----------------------------------------------------------------|
 B|----------------------------------------------------------------|
 G|----------------------------------------------------------------|
 D|0-0-2-2-2-2-0-2-3-2-0-3-----2---0-0-2-2-2-2-0-2-3-2-0-3-----2---|
 A|0-0-2-2-2-2-0-2-3-2-0-3-----2---0-0-2-2-2-2-0-2-3-2-0-3-----2---|
 D|0-0-2-2-2-2-0-2-3-2-0-3-----2---0-0-2-2-2-2-0-2-3-2-0-3-----2---|
  |                                                                |
 e|----------------------------------------------------------------|
 B|----------------------------------------------------------------|
 G|----------------------------------------------------------------|
 D|0-0-2-2-2-2-0-2-3-2-0-3-----2---0-0-2-2-2-2-0-2-3-2-0-3-----2---|
 A|0-0-2-2-2-2-0-2-3-2-0-3-----2---0-0-2-2-2-2-0-2-3-2-0-3-----2---|
 D|0-0-2-2-2-2-0-2-3-2-0-3-----2---0-0-2-2-2-2-0-2-3-2-0-3-----2---|



 e|----------------------------------------------------------------|
 B|----------------------------------------------------------------|
 G|----------------------------------------------------------------|
 D|0-0-2-2-2-2-0-2-3-2-0-3-----2---0-0-2-2-2-2-0-2-3-2-0-3-----2---|
 A|0-0-2-2-2-2-0-2-3-2-0-3-----2---0-0-2-2-2-2-0-2-3-2-0-3-----2---|
 D|0-0-2-2-2-2-0-2-3-2-0-3-----2---0-0-2-2-2-2-0-2-3-2-0-3-----2---|
  |                                                                | 
 e|----------------------------------------------------------------|
 B|----------------------------------------------------------------|
 G|----------------------------------------------------------------|
 D|0-0-2-2-----0-2---2---3-----2---0-0-2-2-----0-2---2---3-----2---|
 A|0-0-2-2-----0-2---2---3-----2---0-0-2-2-----0-2---2---3-----2---|
 D|0-0-2-2-----0-2---2---3-----2---0-0-2-2-----0-2---2---3-----2---|



 e|----------------------------------------------------------------|
 B|----------------------------------------------------------------|
 G|----------------------------------------------------------------|
 D|0-0-2-2-2-2-0-2-3-2-0-3-----2---0-0-2-2-2-2-0-2-3-2-0-3-----2---|
 A|0-0-2-2-2-2-0-2-3-2-0-3-----2---0-0-2-2-2-2-0-2-3-2-0-3-----2---|
 D|0-0-2-2-2-2-0-2-3-2-0-3-----2---0-0-2-2-2-2-0-2-3-2-0-3-----2---|
  |                                                                |
 e|----------------------------------------------------------------|
 B|----------------------------------------------------------------|
 G|----------------------------------------------------------------|
 D|0-0-2-2-----0-2---2---3-----2---0-0-2-2-----0-2---2---3-----2---|
 A|0-0-2-2-----0-2---2---3-----2---0-0-2-2-----0-2---2---3-----2---|
 D|0-0-2-2-----0-2---2---3-----2---0-0-2-2-----0-2---2---3-----2---|



 e|----------------------------------------------------------------|
 B|----------------------------------------------------------------|
 G|----------------------------------------------------------------|
 D|0-0-2-2-----0-2---2---3-----2---0-0-2-2-----0-2---2---3-----2---|
 A|0-0-2-2-----0-2---2---3-----2---0-0-2-2-----0-2---2---3-----2---|
 D|0-0-2-2-----0-2---2---3-----2---0-0-2-2-----0-2---2---3-----2---|
  |                                                                |
 e|----------------------------------------------------------------|
 B|----------------------------------------------------------------|
 G|----------------------------------------------------------------|
 D|0-0-2-2-----0-2---2---3-----2---0-0-2-2-----0-2---2---3-----2---|
 A|0-0-2-2-----0-2---2---3-----2---0-0-2-2-----0-2---2---3-----2---|
 D|0-0-2-2-----0-2---2---3-----2---0-0-2-2-----0-2---2---3-----2---|



 e|----------------------------------------------------------------|
 B|----------------------------------------------------------------|
 G|----------------------------------------------------------------|
 D|0-0-2-2-----0-2---2---3-----2---0-0-2-2-----0-2---2---3-----2---|
 A|0-0-2-2-----0-2---2---3-----2---0-0-2-2-----0-2---2---3-----2---|
 D|0-0-2-2-----0-2---2---3-----2---0-0-2-2-----0-2---2---3-----2---|
  |                                                                |
 e|----------------------------------------------------------------|
 B|----------------------------------------------------------------|
 G|----------------------------------------------------------------|
 D|0-0-2-2-----0-2---2---3-----2---0-0-2-2-----0-2---2---3-----2---|
 A|0-0-2-2-----0-2---2---3-----2---0-0-2-2-----0-2---2---3-----2---|
 D|0-0-2-2-----0-2---2---3-----2---0-0-2-2-----0-2---2---3-----2---|



 e|----------------------------------------------------------------|
 B|----------------------------------------------------------------|
 G|----------------------------------------------------------------|
 D|0-0-2-2-2-2-0-2-3-2-0-3-----2---0-0-2-2-2-2-0-2-3-2-0-3-----2---|
 A|0-0-2-2-2-2-0-2-3-2-0-3-----2---0-0-2-2-2-2-0-2-3-2-0-3-----2---|
 D|0-0-2-2-2-2-0-2-3-2-0-3-----2---0-0-2-2-2-2-0-2-3-2-0-3-----2---|
  |                                                                |
 e|----------------------------------------------------------------|
 B|----------------------------------------------------------------|
 G|----------------------------------------------------------------|
 D|0-0-2-2-2-2-0-2-3-2-0-3-----2---0-0-2-2-2-2-0-2-3-2-0-3-----2---|
 A|0-0-2-2-2-2-0-2-3-2-0-3-----2---0-0-2-2-2-2-0-2-3-2-0-3-----2---|
 D|0-0-2-2-2-2-0-2-3-2-0-3-----2---0-0-2-2-2-2-0-2-3-2-0-3-----2---|



 e|----------------------------------------------------------------|
 B|----------------------------------------------------------------|
 G|----------------------------------------------------------------|
 D|0-0-2-2-2-2-0-2-3-2-0-3-----2---0-0-2-2-2-2-0-2-3-2-0-3-----2---|
 A|0-0-2-2-2-2-0-2-3-2-0-3-----2---0-0-2-2-2-2-0-2-3-2-0-3-----2---|
 D|0-0-2-2-2-2-0-2-3-2-0-3-----2---0-0-2-2-2-2-0-2-3-2-0-3-----2---|
  |                                                                |
 e|----------------------------------------------------------------|
 B|----------------------------------------------------------------|
 G|----------------------------------------------------------------|
 D|0-0-2-2-2-2-0-2-3-2-0-3-----2---0-0-2-2-2-2-0-2-3-2-0-3-----2---|
 A|0-0-2-2-2-2-0-2-3-2-0-3-----2---0-0-2-2-2-2-0-2-3-2-0-3-----2---|
 D|0-0-2-2-2-2-0-2-3-2-0-3-----2---0-0-2-2-2-2-0-2-3-2-0-3-----2---|



 e|----------------------------------------------------------------|
 B|----------------------------------------------------------------|
 G|----------------------------------------------------------------|
 D|0-2-------------------------------------------------------------|
 A|0-2-------------------------------------------------------------|
 D|0-2-------------------------------------------------------------|
  |                                                                |
 e|----------------------------------------------------------------|
 B|----------------------------------------------------------------|
 G|----------------------------------------------------------------|
 D|0-2-------------------------------------------------------------|
 A|0-2-------------------------------------------------------------|
 D|0-2-------------------------------------------------------------| (fade out til end of song)
comments
print report bad tab
1 comment total.
0 reply
stogma wrote on November 12 2012, 11:18 am

Awesome work man! It sounds perfect.

I always thought v2 was correct until I saw them play live recently and realised he played it further up the neck.

Good job!

I want to post or [tab]
guest
You may want to rate the tab now too:
select rating
Please do not post tabs as comments. Select "correction" instead!