Oops, an error
Loading. Please wait.

Ghost Of Corporate Future Tab

ver1
ver1

Whole song

Interactive

More versions @911Tabs.com
2,177 views 3 this week
no commentswrite comment
1 2 3 4 5
please rate
Autoscroll
+/-
esc
set tempo
stop
Contributor
Difficulty
intermediate
NEW! There's an official Ultimate Guitar app which is ideal
for learning songs when you're away from computer. Get the app
WARNING: You are trying to view
                                    content from Ultimate-Guitar.com
                                    in an unauthorized application,
                                    which is prohibited.

                                    Please use an official Ultimate
                                    Guitar Tabs application for iPhone,
                                    iPad or Android to access legitimate
                                    chords, guitar, bass, and drum tabs
                                    from Ultimate-Guitar.com database.

                                    Type "ultimate guitar tabs" in Apple
                                    App Store's or Android Market's
                                    search to find the application.
INTRO
e-----------------------------|
B-6-9-7-6-------6-9-7-6-------|
G---------8-6-6---------8-6---|
D-----------------------------|


VERSE
e----------------------|
B-6-9-7-6--------------|
G---------8-6-6--(x3)--|
D----------------------|

      A man walks out of his apartment
      It is raining he's got no umbrella
      He starts running beneath the awnings

e-----------------------------|
B-6------------6-9-7-6--------|
G---8-6-(x3)------------8-6-6-|
D-----------------------------|

    Trying to save his suit
    Trying to save his suit
    Tryin' to dry and tryin to dry but no good

VERSE
e---------------------------------------------------------------|
B-6-9-7-6---------6-------6-9-7-6---------6----------6----------|
G---------8-6-6------8-6-----------8-6-6-----8--6------8-11-----|
D---------------------------------------------------------------|
A---------------------------------------------------------------|
E---------------------------------------------------------------|
      When he gets to the crowded subway platform
      He takes off both of his shoes
      He steps right into somebody's fat loogie
      And everyone that see's him says "ew"
      Everyone that see's him says "ew"

CHORUS
e-------------------------------------------------------------------------|
B-------------------------------------------------------------------------|
G-----------------------------------------------------10---10-------10-8--|
D--11-11-11-11-11-11-11-11-11-11-11-11-11-11-11-11-11---11---11-10--------|
A-------------------------------------------------------------------------|
E-------------------------------------------------------------------------|
But he doesn't care 'cause last night he got a visit from the ghost of corporate future

e------------------------------------------------------------------------|
B------------------------------------------------------------------------|
G-----------------------------------------------------10--------8--------|
D--11-11-11-11-11-11-11-11-11-11-11-11-11-11-11-11-11----11-11-----------|
A------------------------------------------------------------------------|
E------------------------------------------------------------------------|
 The ghost said take off both your shoes whatever chances you get he also said

VERSE
Imagine you go away on a business trip one day
And when you come back home
Your children have grown
And you never made your wife moan
Your children have grown
And you never made your wife moan

BRIDGE
e--------------------------------------------------------------------------|
B-------------------------------------------------------------------7(x6)--|
G-11(x6)-----------------11(x6)--------------------- 10(x6)----------------|
D--------------------------------------------------------------------------|
repeat 4x ^
And people make you...  you'd think the world....  And everybody's... somehow started blending
And everything is plastic,
and everyone's sarcastic
And all your food... needs to be
You'd think the world was ending
You'd think the world was ending
You'd think the world was ending right now
You'd think the world was ending
You'd think the world was ending
You'd think the world was ending right now

VERSE
Well maybe you should just drink a lot less coffee
And never ever watch the ten o'clock news
Maybe you should kiss someone nice or lick a rock or both
Maybe you should cut your own hair cause that can be so funny
It doesn't cost any money and it always grows back
Hair grows even after you're dead

BRIDGE
People are just people
They shouldn't make you nervous
The world is everlasting
It's coming and it's going
If you don't toss your plastic
The streets won't be so plastic
And if you kiss somebody
Then both of you'll get practice

The world is everlasting
Put dirtballs in your pockets
Put dirtball's in your pockets
And take off both your shoes
Cause people are just people
People are just people
People are just people like you

People are just people
People are just people
People are just people like you

e---------------------------------------------|
B----13-----16-13-14-14----14--11-11-11-9-----|
G-13-----13-------------------------------10--|
D---------------------------------------------|
 The world is everlasting. It's comin' and it's goin'


e----------------------------------------------------------------|
B-7--13-----16/14-13-14-14----14-11/9\11--11-11---13/11\13---13--|
G------13--------------------------------------------------------|
D----------------------------------------------------------------|
 The world is everlasting. It's comin' and it's gooo oh oh  in'
comments
We did not receive enough feedback on this tab! Please rate:
print report bad tab
1 2 3 4 5
I want to post or [tab]
guest
You may want to rate the tab now too:
select rating
Please do not post tabs as comments. Select "correction" instead!