Oops, an error
Loading. Please wait.

Samson Tab

51,894 views 30 this week
1 commentread comment
1 2 3 4 5
accurate
x 14
Autoscroll
+/-
esc
set tempo
stop
Contributor
WARNING: You are trying to view
                                    content from Ultimate-Guitar.com
                                    in an unauthorized application,
                                    which is prohibited.

                                    Please use an official Ultimate
                                    Guitar Tabs application for iPhone,
                                    iPad or Android to access legitimate
                                    chords, guitar, bass, and drum tabs
                                    from Ultimate-Guitar.com database.

                                    Type "ultimate guitar tabs" in Apple
                                    App Store's or Android Market's
                                    search to find the application.
SONG: Samson
ARTIST: Regina Spektor

NOTES:
This is a tab of a cover [on guitar] that I wrote for the song Samson by Regina Spektor.
I used the same chords, of course, as in the original sheet music, with a few minor 
here and there.
I didn't know where else to put this up so I put it up here ^^
I hope I did a good job in both covering and tabbing this, it's very simple.
Please comment it if you have questions and corrections, or email me at goshdontlabelme@yahoo.com
and I hope you enjoy this; it is a very beautiful song.

LEGEND:
> down strum
< up strum
~ let ring

CHORDS USED:
B	224442
C#m	046654
B/D#	x2544x
Esus2	xx2452
F#sus2	xx4674
F#	244322 or x55787
G#m	466444 or xx69108
E	x22100 or xx7568
E/B	776454
A#	013330

TUNING: Standard

INTRO/VERSE:
[downward strums, softly until "beneath the sheets.."]
   B	C#m    B/D#	Esus2
E|--2----|--0-----4-------2----|--2--2--4--4----|
B|--4----|--4-4---5-5---4------|--5-----5-------|
G|--4----|--4-----6-----4---4--|--4-----4----4--|
D|--4----|--4---4-6---6-5------|--2-----2-------|
A|--2----|--2-----4-----2------|----------------|
E|--2----|--0-----0------------|----------------|
    >	    >	  >     >	  >     >
	   "you are my sweetest downfall..."


	F#sus2 F#   G#m		F#    E
E|--4-4---4-6---7-77--8--8----|--7-7---8------------|
B|--5-----7-----8-----10------|--8-----6-6-6-6------|
G|--4---4-6---6-7---7-9----9--|--7---7-5-------(0)--|
D|--2-----4-----5-----6-------|--5-----7------------|
A|--------------5-------------|--5------------------|
E|----------------------------|---------------------|
    >	  >     >     >		 >     >
	"I loved you first..."


   B	       C#m	   B/D#	      Esus2
E|--2-22--2-22--4-44--4-44--------------2-22--2-22--2-22--2-22--|
B|--4-44--4-44--5-55--5-55--5-55--5-55--5-55--5-55--5-55--5-55--|
G|--4-44--4-44--6-66--6-66--4-44--4-44--4-44--4-44--4-44--4-44--|
D|--4-44--4-44--6-66--6-66--4-44--4-44--2-22--2-22--2-22--2-22--|
A|--2-22--2-22--4-44--4-44--2-22--2-22--------------------------|
E|--2-22--2-22--0-00--0-00--------------------------------------|
    > ><  > ><  > ><  > ><  > ><  > ><  > ><  > ><  > ><  > ><
 "..sheets of paper 	   lies	my	truth..."


   Esus2       F#	G#m		F#	  E
E|--2-22--2-22--|--2-x-2--4--44--|--4-4--2-x-2--|--0-00--0-00--0-00--0-00--|
B|--5-55--5-55--|--2-x-2--4--44--|--4-4--2-x-2--|--0-00--0-00--0-00--0-00--|
G|--4-44--4-44--|--3-x-3--4--44--|--4-4--3-x-3--|--1-11--1-11--1-11--1-11--|
D|--2-22--2-22--|--4-x-4--6--66--|--6-6--4-x-4--|--2-22--2-22--2-22--2-22--|
A|--------------|--4-x-4--6--66--|--6-6--4-x-4--|--2-22--2-22--2-22--2-22--|
E|--------------|--2-x-2--4--44--|--4-4--2-x-2--|--------------------------|
    > ><  > ><	   >   >  >  ><	    > <  >   >	   > ><  > ><  > ><  > ><
	"I 	 have to go, 	     I have to    go. Your hair was


   Esus2		      E/B			Esus2
E|--2-22--2-22--2-22--2-22--|--4-44--4-44--4-44--4-44--|--2-22--2-22--2-22--2-22--|
B|--5-55--5-55--5-55--5-55--|--5-55--5-55--5-55--5-55--|--5-55--5-55--5-55--5-55--|
G|--4-44--4-44--4-44--4-44--|--4-44--4-44--4-44--4-44--|--4-44--4-44--4-44--4-44--|
D|--2-22--2-22--2-22--2-22--|--6-66--6-66--6-66--6-66--|--2-22--2-22--2-22--2-22--|
A|--------------------------|--7-77--7-77--7-77--7-77--|--------------------------|
E|--------------------------|--7-77--7-77--7-77--7-77--|--------------------------|
    > ><  > ><  > ><  > ><     > ><  > ><  > ><  > ><	  > ><  > ><  > ><  >  ><
 ..long when we first 	met"


CHORUS:
   F#   G#m    B*   B			E
E|--2-2x--4-44--0-0--2-22--|--2-2--2-22--0-00--0-00--|
B|--2-2x--4-44--4-4--4-44--|--4-4--4-44--0-00--0-00--|
G|--3-3x--4-44--4-4--4-44--|--4-4--4-44--1-11--1-11--|
D|--4-4x--6-66--4-4--4-44--|--4-4--4-44--2-22--2-22--|
A|--4-4x--6-66--2-2--2-22--|--2-2--2-22--2-22--2-22--|
E|--2-2x--4-44--2-2--2-22--|--0-0--0-00--0-00--0-00--|
    > >   > ><  > >  > ><     > >  > ><  > ><  > ><
  "Sam	son... back to bed... 	   left on his head"


   F#   G#m    B*   B			F#
E|--2-2x--4-44--0-0--2-22--|--2-2--2-22--2-2-2-22--2-22--2-22--|
B|--2-2x--4-44--4-4--4-44--|--4-4--4-44--3-3-3-33--3-33--3-33--|
G|--3-3x--4-44--4-4--4-44--|--4-4--4-44--4-4-4-44--4-44--4-44--|
D|--4-4x--6-66--4-4--4-44--|--4-4--4-44--4-4-4-44--4-44--4-44--|
A|--4-4x--6-66--2-2--2-22--|--2-2--2-22--2-2-2-22--2-22--2-22--|
E|--2-2x--4-44--2-2--2-22--|--2-2--2-22--2-2-2-22--2-22--2-22--|
    > >   > ><  > >  > ><     > >  > ><  > > > ><  > ><  > ><
"..ate a slice of   bread...		bed..."


   F#   G#m    B*   B			E
E|--2-2x--4-44--0-0--2-22--|--2-2--2-22--0-00--0-00--|
B|--2-2x--4-44--4-4--4-44--|--4-4--4-44--0-00--0-00--|
G|--3-3x--4-44--4-4--4-44--|--4-4--4-44--1-11--1-11--|
D|--4-4x--6-66--4-4--4-44--|--4-4--4-44--2-22--2-22--|
A|--4-4x--6-66--2-2--2-22--|--2-2--2-22--2-22--2-22--|
E|--2-2x--4-44--2-2--2-22--|--2-2--2-22--------------|
    > >   > ><  > >  > ><     > >  > ><  > ><  > ><
"..hist'ry books... 	     bible didn't mention us..."


   B  F# G#m			E
E|--2--2--4--44--44-4-4-4-44--|--0-00-0-0-0-0-0-0-0--|
B|--4--2--4--44--44-4-4-4-44--|--0-00-0-0-0-0-0-0-0--|
G|--4--3--4--44--44-4-4-4-44--|--1-11-1-1-1-1-1-1-1--|
D|--4--4--6--66--66-6-6-6-66--|--2-22-2-2-2-2-2-2-2--|
A|--2--4--6--66--66-6-6-6-66--|--2-22-2-2-2-2-2-2-2--|
E|--2--2--4--44--44-4-4-4-44--|----------------------|
    >  >  >  >>  >< > < > ><	 > >< > > > > > > <
"bible didn't mention us 	once..."


POST CHORUS RIFF:
  F# B	   F# E
E|--2-2--2--2--0~--|
B|--2-4--4--2--0~--|
G|--3-4--4--3--1~--|
D|--4-4--4--4--2~--|
A|--4-2--2--4--2~--|
E|--2-2--2--2------|
    > >  >  >  >


VERSE 2:
   B	       C#m	   B/D#	      Esus2
|--2-22--2-22--4-44--4-44--------------2-22--2-22--2-22--2-22--|
|--4-44--4-44--5-55--5-55--5-55--5-55--5-55--5-55--5-55--5-55--|
|--4-44--4-44--6-66--6-66--4-44--4-44--4-44--4-44--4-44--4-44--|
|--4-44--4-44--6-66--6-66--4-44--4-44--2-22--2-22--2-22--2-22--|
|--2-22--2-22--4-44--4-44--2-22--2-22--------------------------|
|--2-22--2-22--0-00--0-00--------------------------------------|
   > ><  > ><  > ><  > ><  > ><  > ><  > ><  > ><  > ><  > >
	"You are my...	   	       downfall.."


   Esus2       F#	G#m		F#	  E
E|--2-22--2-22--|--2-x-2--4--44--|--4-4--2-x-2--|--0-00--0-00--0-00--0-00--|
B|--5-55--5-55--|--2-x-2--4--44--|--4-4--2-x-2--|--0-00--0-00--0-00--0-00--|
G|--4-44--4-44--|--3-x-3--4--44--|--4-4--3-x-3--|--1-11--1-11--1-11--1-11--|
D|--2-22--2-22--|--4-x-4--6--66--|--6-6--4-x-4--|--2-22--2-22--2-22--2-22--|
A|--------------|--4-x-4--6--66--|--6-6--4-x-4--|--2-22--2-22--2-22--2-22--|
E|--------------|--2-x-2--4--44--|--4-4--2-x-2--|--------------------------|
    > ><  > ><	   >   >  >  ><	    > <  >   >	   > ><  > ><  > ><  > ><
	"I 	loved you first	    I loved you first..."


   B	       C#m	   B/D#	      Esus2
E|--2-22--2-22--4-44--4-44--------------2-22--2-22--2-22--2-22--|
B|--4-44--4-44--5-55--5-55--5-55--5-55--5-55--5-55--5-55--5-55--|
G|--4-44--4-44--6-66--6-66--4-44--4-44--4-44--4-44--4-44--4-44--|
D|--4-44--4-44--6-66--6-66--4-44--4-44--2-22--2-22--2-22--2-22--|
A|--2-22--2-22--4-44--4-44--2-22--2-22--------------------------|
E|--2-22--2-22--0-00--0-00--------------------------------------|
    > ><  > ><  > ><  > ><  > ><  > ><  > ><  > ><  > ><  > ><
"..stars keep  falling 	   on our heads..."


   Esus2       F#	G#m		F#	  E
E|--2-22--2-22--|--2-x-2--4--44--|--4-4--2-x-2--|--0-00--0-00--0-00--0-00--|
B|--5-55--5-55--|--2-x-2--4--44--|--4-4--2-x-2--|--0-00--0-00--0-00--0-00--|
G|--4-44--4-44--|--3-x-3--4--44--|--4-4--3-x-3--|--1-11--1-11--1-11--1-11--|
D|--2-22--2-22--|--4-x-4--6--66--|--6-6--4-x-4--|--2-22--2-22--2-22--2-22--|
A|--------------|--4-x-4--6--66--|--6-6--4-x-4--|--2-22--2-22--2-22--2-22--|
E|--------------|--2-x-2--4--44--|--4-4--2-x-2--|--------------------------|
    > ><  > ><	   >   >  >  ><	    > <  >   >	   > ><  > ><  > ><  > ><
"..they're just old light, 		just old light. Your hair was


   Esus2		      E/B			Esus2
E|--2-22--2-22--2-22--2-22--|--4-44--4-44--4-44--4-44--|--2-22--2-22--2-22--2-22--|
B|--5-55--5-55--5-55--5-55--|--5-55--5-55--5-55--5-55--|--5-55--5-55--5-55--5-55--|
G|--4-44--4-44--4-44--4-44--|--4-44--4-44--4-44--4-44--|--4-44--4-44--4-44--4-44--|
D|--2-22--2-22--2-22--2-22--|--6-66--6-66--6-66--6-66--|--2-22--2-22--2-22--2-22--|
A|--------------------------|--7-77--7-77--7-77--7-77--|--------------------------|
E|--------------------------|--7-77--7-77--7-77--7-77--|--------------------------|
   > ><  > ><  > ><  > ><      > ><  > ><  > ><  > ><	  > ><  > ><  > ><  > ><
 ..long when we first 	met"


CHORUS 2:
   F#   G#m    B*   B			E
E|--2-2x--4-44--0-0--2-22--|--2-2--2-22--0-00--0-00--|
B|--2-2x--4-44--4-4--4-44--|--4-4--4-44--0-00--0-00--|
G|--3-3x--4-44--4-4--4-44--|--4-4--4-44--1-11--1-11--|
D|--4-4x--6-66--4-4--4-44--|--4-4--4-44--2-22--2-22--|
A|--4-4x--6-66--2-2--2-22--|--2-2--2-22--2-22--2-22--|
E|--2-2x--4-44--2-2--2-22--|--0-0--0-00--0-00--0-00--|
    > >   > ><  > >  > ><     > >  > ><  > ><  > ><
  "Sam	son... to my bed... 	   my hair was red"


   F#   G#m    B*   B			F#
E|--2-2x--4-44--0-0--2-22--|--2-2--2-22--2-2-2-22--2-22--2-22--|
B|--2-2x--4-44--4-4--4-44--|--4-4--4-44--3-3-3-33--3-33--3-33--|
G|--3-3x--4-44--4-4--4-44--|--4-4--4-44--4-4-4-44--4-44--4-44--|
D|--4-4x--6-66--4-4--4-44--|--4-4--4-44--4-4-4-44--4-44--4-44--|
A|--4-4x--6-66--2-2--2-22--|--2-2--2-22--2-2-2-22--2-22--2-22--|
E|--2-2x--4-44--2-2--2-22--|--2-2--2-22--2-2-2-22--2-22--2-22--|
    > >   > ><  > >  > ><     > >  > ><  > > > ><  > ><  > ><
"..told me I was beautiful...		bed..."


   F#   G#m    B*   B			E
E|--2-2x--4-44--0-0--2-22--|--2-2--2-22--0-00--0-00--|
B|--2-2x--4-44--4-4--4-44--|--4-4--4-44--0-00--0-00--|
G|--3-3x--4-44--4-4--4-44--|--4-4--4-44--1-11--1-11--|
D|--4-4x--6-66--4-4--4-44--|--4-4--4-44--2-22--2-22--|
A|--4-4x--6-66--2-2--2-22--|--2-2--2-22--2-22--2-22--|
E|--2-2x--4-44--2-2--2-22--|--2-2--2-22--------------|
    > >   > ><  > >  > ><     > >  > ><  > ><  > ><
"cut his hair myself...			yellow light..."


   E	       B		   F#	       E
E|--0-00--0-00--2-2--2-22--|--2--2--4--44-4-44--0-0-0-00--|
B|--0-00--0-00--4-4--4-44--|--4--2--4--44-4-44--0-0-0-00--|
G|--1-11--1-11--4-4--4-44--|--4--3--4--44-4-46--1-1-1-11--|
D|--2-22--2-22--4-4--4-44--|--4--4--6--66-6-66--2-2-2-22--|
A|--2-22--2-22--2-2--2-22--|--2--4--6--66-6-66--2-2-2-22--|
E|--------------2-2--2-22--|--2--2--4--44-4-44------------|
    > ><  > ><  > >  > ><     >  >  >  >< > ><  > > > ><
"told me..     done alright..kissed me 'til..."


   B  F# G#m			E
E|--2--2--4--44--44-4-4-4-44--|--0-00-0-0-0-0-0-0-0--|
B|--4--2--4--44--44-4-4-4-44--|--0-00-0-0-0-0-0-0-0--|
G|--4--3--4--44--44-4-4-4-44--|--1-11-1-1-1-1-1-1-1--|
D|--4--4--6--66--66-6-6-6-66--|--2-22-2-2-2-2-2-2-2--|
A|--2--4--6--66--66-6-6-6-66--|--2-22-2-2-2-2-2-2-2--|
E|--2--2--4--44--44-4-4-4-44--|----------------------|
    >  >  >  >>  >< > < > ><	 > >< > > > > > > <
"kissed me 'til the morning light..."


POST CHORUS RIFF:
  F# B	   F# E
E|--2-2--2--2--0~--|
B|--2-4--4--2--0~--|
G|--3-4--4--3--1~--|
D|--4-4--4--4--2~--|
A|--4-2--2--4--2~--|
E|--2-2--2--2------|
    > >  >  >  >


SOLO:
[play this softly..]
   B	 F#		E    G#m
E|-----2-----2--------|--0~--------------7~--|
B|--4-----2--------2--|--0~---------4-7------|
G|--------------------|--1~---4-4-6----------|
D|--4-----4-----4-----|--2~------------------|
A|--------4-----------|--2~------------------|
E|--------------------|----------------------|
			 >


CHORUS 3:
   F#   G#m    B*   B			E
E|--2-2x--4-44--0-0--2-22--|--2-2--2-22--0-00--0-00--|
B|--2-2x--4-44--4-4--4-44--|--4-4--4-44--0-00--0-00--|
G|--3-3x--4-44--4-4--4-44--|--4-4--4-44--1-11--1-11--|
D|--4-4x--6-66--4-4--4-44--|--4-4--4-44--2-22--2-22--|
A|--4-4x--6-66--2-2--2-22--|--2-2--2-22--2-22--2-22--|
E|--2-2x--4-44--2-2--2-22--|--0-0--0-00--0-00--0-00--|
    > >   > ><  > >  > ><     > >  > ><  > ><  > ><
  "Sam	son... back to bed... 	   left on his head"


   F#   G#m    B*   B			F#
E|--2-2x--4-44--0-0--2-22--|--2-2--2-22--2-2-2-22--2-22--2-22--|
B|--2-2x--4-44--4-4--4-44--|--4-4--4-44--3-3-3-33--3-33--3-33--|
G|--3-3x--4-44--4-4--4-44--|--4-4--4-44--4-4-4-44--4-44--4-44--|
D|--4-4x--6-66--4-4--4-44--|--4-4--4-44--4-4-4-44--4-44--4-44--|
A|--4-4x--6-66--2-2--2-22--|--2-2--2-22--2-2-2-22--2-22--2-22--|
E|--2-2x--4-44--2-2--2-22--|--2-2--2-22--2-2-2-22--2-22--2-22--|
    > >   > ><  > >  > ><     > >  > ><  > > > ><  > ><  > ><
"..ate a slice of   bread...		bed..."


   F#   G#m    B*   B			E
E|--2-2x--4-44--0-0--2-22--|--2-2--2-22--0-00--0-00--|
B|--2-2x--4-44--4-4--4-44--|--4-4--4-44--0-00--0-00--|
G|--3-3x--4-44--4-4--4-44--|--4-4--4-44--1-11--1-11--|
D|--4-4x--6-66--4-4--4-44--|--4-4--4-44--2-22--2-22--|
A|--4-4x--6-66--2-2--2-22--|--2-2--2-22--2-22--2-22--|
E|--2-2x--4-44--2-2--2-22--|--2-2--2-22--------------|
    > >   > ><  > >  > ><     > >  > ><  > ><  > ><
"..couldn't bring..	    couldn't destroy a single one..."


   E	       B
E|--0-00--0-00--2-2--2-22--|
B|--0-00--0-00--4-4--4-44--|
G|--1-11--1-11--4-4--4-44--|
D|--2-22--2-22--4-4--4-44--|
A|--2-22--2-22--2-2--2-22--|
E|--------------2-2--2-22--|
    > ><  > ><  > >  > ><
"forgot about us..."


   B  F# G#m			E
E|--2--2--4--44--44-4-4-4-44--|--0-00-0-0-0-0-0-0-0--|
B|--4--2--4--44--44-4-4-4-44--|--0-00-0-0-0-0-0-0-0--|
G|--4--3--4--44--44-4-4-4-44--|--1-11-1-1-1-1-1-1-1--|
D|--4--4--6--66--66-6-6-6-66--|--2-22-2-2-2-2-2-2-2--|
A|--2--4--6--66--66-6-6-6-66--|--2-22-2-2-2-2-2-2-2--|
E|--2--2--4--44--44-4-4-4-44--|----------------------|
    >  >  >  >>  >< > < > ><	 > >< > > > > > > <
"bible didn't mention us..."


POST CHORUS RIFF:
  F# B	   F# E
E|--2-2--2--2--0~--|
B|--2-4--4--2--0~--|
G|--3-4--4--3--1~--|
D|--4-4--4--4--2~--|
A|--4-2--2--4--2~--|
E|--2-2--2--2------|
    > >  >  >  >


OUTRO:
[play softly..]
   B	C#m    B/D#	Esus2
E|--2-----4-------2----|--2--2--4--4----|
B|--4-4---5-5---4------|--5-----5-------|
G|--4-----6-----4---4--|--4-----4----4--|
D|--4---4-6---6-5------|--2-----2-------|
A|--2-----4-----2------|----------------|
E|--2-----0------------|----------------|
    >	  >	>         >	>
	   "you are my sweetest downfall..."


	F#sus2 F#
E|--4-4---4-6---7~--|
B|--5-----7-----8~--|
G|--4---4-6---6-7~--|
D|--2-----4-----5~--|
A|--------------5~--|
A|------------------|
    >	  >     >
	"I loved you first..."


LYRICS:
You are my sweetest downfall
I loved you first,
I loved you first
Beneath the sheets of paper lies my truth
I have to go,
I have to go
You hair was long when we first met

Samson went back to bed,
Not much hair left on his head
He ate a slice of wonder bread
And went right back to bed

And the history books forgot about us
And the bible didn't mention us
And the bible didn't mention us
Not even once

You are my sweetest downfall
I loved you first,
I loved you first
Beneath the stars keep falling on our heads
But they're just old light,
They're just old light
Your hair was long when we first met

Samson came to my bed,
Told me that my hair was red
Told me I was beautiful
And came into my bed

Oh, I cut his hair myself one night,
I buried those scissors in the yellow light
And he told me that I had done alright,
And he kissed me 'til the morning light, the morning light
And he kissed me 'til the morning light

Samson went back to bed,
Not much hair left on his head
Ate a slice of wonderbread
And went right back to bed

Oh we couldn't bring the columns down,
Yeah we couldn't destroy a single one
And the history books forgot about us
And the bible didn't mention us
Not even once

You are my sweetest downfall
I loved you first
1 comment total.
0 reply
rein28ph wrote on November 17 2007, 07:19 am

Great tab! I used a capo on the 2nd fret to make the chords more comfortable and i just substituted the low F# and E
bass notes with its higher counterparts. Still sounded great! Anyway, thanks for the tab!

I want to post or [tab]
guest
You may want to rate the tab now too:
select rating
Please do not post tabs as comments. Select "correction" instead!