Oops, an error
Loading. Please wait.

Chapstick Chapped Lips And Things Like Chemistry Tab

ver5
ver5

Whole song

Interactive

More versions @911Tabs.com
1,924 views 1 this week
no commentswrite comment
1 2 3 4 5
excellent!
x 2
Autoscroll
+/-
esc
set tempo
stop
Contributor
Hey! There's an official Ultimate Guitar app which is ideal
for learning songs when you're away from computer. Get the app
WARNING: You are trying to view
                                    content from Ultimate-Guitar.com
                                    in an unauthorized application,
                                    which is prohibited.

                                    Please use an official Ultimate
                                    Guitar Tabs application for iPhone,
                                    iPad or Android to access legitimate
                                    chords, guitar, bass, and drum tabs
                                    from Ultimate-Guitar.com database.

                                    Type "ultimate guitar tabs" in Apple
                                    App Store's or Android Market's
                                    search to find the application.
I went through all the other tabs of this song and they were all wrong somewhere so I 
of took what I learned from them and fixed them up into this which I'm confident is very accurate.


Intro (1st guitar):

e|--------------------------------------------------------------|
B|--------------------------------------------------------------|
G|----4-444-44444-4-444-44444-4-444-44444-4-444-44444-----------|
D|----x-xxx-xxxxx-x-xxx-xxxxx-x-xxx-xxxxx-x-xxx-xxxxx-----------|
A|----2-222-22222-2-222-22222-2-222-22222-2-222-22222-----------|
E|--------------------------------------------------------------|

SIMULTANEOUS:

1st guitar:

e|--------------------------------------------------------------|
B|--------------------------------------------------------------|
G|----4-444-44444-4-444-44444-4-444-44444-4-444-44444-----------|
D|----x-xxx-xxxxx-x-xxx-xxxxx-x-xxx-xxxxx-x-xxx-xxxxx-----------|
A|----2-222-22222-2-222-22222-2-222-22222-2-222-22222-----------|
E|--------------------------------------------------------------|

2nd guitar:

e|--------------------------------------------------------------|
B|--------------------------------------------------------------|
G|----4---------4-----------------------------------------------|
D|----4---------4-----------6-----------2-----------------------|
A|----2---------1-----------6-----------2-----------------------|
E|--------------------------4-----------0-----------------------|

1st guitar:

e|--------------------------------------------------------------|
B|--------------------------------------------------------------|
G|----4-444-44444-4-444-44444-4-444-44444-4-444-44444-----------|
D|----x-xxx-xxxxx-x-xxx-xxxxx-x-xxx-xxxxx-x-xxx-xxxxx-2-2-2-2---|
A|----2-222-22222-2-222-22222-2-222-22222-2-222-22222-2-2-2-2---|
E|----------------------------------------------------0-0-0-0---|

2nd guitar:

e|--------------------------------------------------------------|
B|--------------------------------------------------------------|
G|----4---------4-----------------------------------------------|
D|----4---------4-----------6-----------2-------------2-2-2-2---|
A|----2---------1-----------6-----------2-------------2-2-2-2---|
E|--------------------------4-----------0-------------0-0-0-0---|


Verse:

SIMULTANEOUS:

1st guitar:

e|--------------------------------------------------------------|
B|--------------------------------------------------------------|
G|-------------------------9-9-9-9999999-99999------------------|
D|----2-22-4-44-6-66-9-99--9-9-9-9999999-99999------------------|
A|----2-22-4-44-6-66-9-99--7-7-7-7777777-77777------------------|
E|----0-00-2-22-4-44-7-77---------------------------------------|

2nd guitar:

e|--------------------------------------------------------------|
B|--------------------------------------------------------------|
G|-------------------------9-9-9---9-8-4-6--3-------------------|
D|----2-22-4-44-6-66-9-99--9-9-9---9-8-4-6--3-------------------|
A|----2-22-4-44-6-66-9-99--7-7-7---7-6-2-4--1-------------------|
E|----0-00-2-22-4-44-7-77---------------------------------------|

1st guitar:

e|--------------------------------------------------------------|
B|--------------------------------------------------------------|
G|-------------------------9-9-9-9999999-9----------------------|
D|----2-22-4-44-6-66-9-99--9-9-9-9999999-9----------------------|
A|----2-22-4-44-6-66-9-99--7-7-7-7777777-7----------------------|
E|----0-00-2-22-4-44-7-77---------------------------------------|

2nd guitar:

e|--------------------------------------------------------------|
B|--------------------------------------------------------------|
G|-------------------------9-9-9---9-8-4-6----------------------|
D|----2-22-4-44-6-66-9-99--9-9-9---9-8-4-6----------------------|
A|----2-22-4-44-6-66-9-99--7-7-7---7-6-2-4----------------------|
E|----0-00-2-22-4-44-7-77---------------------------------------|

Chorus:

SIMULTANEOUS:

1st guitar:

e|--------------------------------------------------------------|
B|--------------------------------------------------------------|
G|----4-444-44444-4-444-44444-4-444-44444-4-444-44444-----------|
D|----x-xxx-xxxxx-x-xxx-xxxxx-x-xxx-xxxxx-x-xxx-xxxxx-----------|
A|----2-222-22222-2-222-22222-2-222-22222-2-222-22222-----------|
E|--------------------------------------------------------------|

2nd guitar:

e|--------------------------------------------------------------|
B|--------------------------------------------------------------|
G|----4-4-44-44----------------4-4-44-44------------------------|
D|----4-4-44-44-2-2-4-4-44-44--4-4-44-44-2-2-4-4-44-44----------|
A|----2-2-22-22-2-2-4-4-44-44--2-2-22-22-2-2-4-4-44-44----------|
E|--------------0-0-2-2-22-22------------0-0-2-2-22-22----------|


1st guitar:

e|--------------------------------------------------------------|
B|--------------------------------------------------------------|
G|----4-444-44444-4-444-44444-4-444-44444-4-444-44444-----------|
D|----x-xxx-xxxxx-x-xxx-xxxxx-x-xxx-xxxxx-x-xxx-xxxxx----REST---|
A|----2-222-22222-2-222-22222-2-222-22222-2-222-22222-----------|
E|--------------------------------------------------------------|

2nd guitar:

e|--------------------------------------------------------------|
B|--------------------------------------------------------------|
G|----4-4-44-44----------------4-4-44-44------------------------|
D|----4-4-44-44-2-2-4-4-44-44--4-4-44-44-2-2-4-4-44-44---REST---|
A|----2-2-22-22-2-2-4-4-44-44--2-2-22-22-2-2-4-4-44-44----------|
E|--------------0-0-2-2-22-22------------0-0-2-2-22-22----------|


1st guitar:

e|--------------------------------------------------------------|
B|--------------------------------------------------------------|
G|----4-444-44444-4-444-44444-4-444-44444-4-444-44444-----------|
D|----x-xxx-xxxxx-x-xxx-xxxxx-x-xxx-xxxxx-x-xxx-xxxxx-----------|
A|----2-222-22222-2-222-22222-2-222-22222-2-222-22222-----------|
E|--------------------------------------------------------------|

2nd guitar:

e|--------------------------------------------------------------|
B|--------------------------------------------------------------|
G|----4-4-44-44----------------4-4-44-44------------------------|
D|----4-4-44-44-2-2-4-4-44-44--4-4-44-44-2-2-4-4-44-44----------|
A|----2-2-22-22-2-2-4-4-44-44--2-2-22-22-2-2-4-4-44-44----------|
E|--------------0-0-2-2-22-22------------0-0-2-2-22-22----------|

Both guitars:

e|--------------------------------------------------------------|
B|--------------------------------------------------------------|
G|-----------------------------------------------------4--------|
D|----6-------------------------------2---------4------4--------|
A|----6-------------------------------2---------4------2--------|
E|----4-------------------------------0---------2---------------|
"So I guess I have to wait a lot till 8 o clock comes aroooouuund"

*Drum*

2nd intro:

SIMULTANEOUS:

1st guitar:

e|--------------------------------------------------------------|
B|--------------------------------------------------------------|
G|----4-444-44444-4-444-44444-4-444-44444-4-444-44444-----------|
D|----x-xxx-xxxxx-x-xxx-xxxxx-x-xxx-xxxxx-x-xxx-xxxxx-----------|
A|----2-222-22222-2-222-22222-2-222-22222-2-222-22222-----------|
E|--------------------------------------------------------------|

2nd guitar:

e|--------------------------------------------------------------|
B|--------------------------------------------------------------|
G|----4---------4-----------------------------------------------|
D|----4---------4-----------6-----------2-----------------------|
A|----2---------1-----------6-----------2-----------------------|
E|--------------------------4-----------0-----------------------|

1st guitar:

e|--------------------------------------------------------------|
B|--------------------------------------------------------------|
G|----4-444-44444-4-444-44444-4-444-44444-4-444-44444-----------|
D|----x-xxx-xxxxx-x-xxx-xxxxx-x-xxx-xxxxx-x-xxx-xxxxx-2-2-2-2---|
A|----2-222-22222-2-222-22222-2-222-22222-2-222-22222-2-2-2-2---|
E|----------------------------------------------------0-0-0-0---|

2nd guitar:

e|--------------------------------------------------------------|
B|--------------------------------------------------------------|
G|----4---------4-----------------------------------------------|
D|----4---------4-----------6-----------2-------------2-2-2-2---|
A|----2---------1-----------6-----------2-------------2-2-2-2---|
E|--------------------------4-----------0-------------0-0-0-0---|

Verse:

SIMULTANEOUS:

1st guitar:

e|--------------------------------------------------------------|
B|--------------------------------------------------------------|
G|-------------------------9-9-9-9999999-99999------------------|
D|----2-22-4-44-6-66-9-99--9-9-9-9999999-99999------------------|
A|----2-22-4-44-6-66-9-99--7-7-7-7777777-77777------------------|
E|----0-00-2-22-4-44-7-77---------------------------------------|

2nd guitar:

e|--------------------------------------------------------------|
B|--------------------------------------------------------------|
G|-------------------------9-9-9---9-8-4-6--3-------------------|
D|----2-22-4-44-6-66-9-99--9-9-9---9-8-4-6--3-------------------|
A|----2-22-4-44-6-66-9-99--7-7-7---7-6-2-4--1-------------------|
E|----0-00-2-22-4-44-7-77---------------------------------------|

1st guitar:

e|--------------------------------------------------------------|
B|--------------------------------------------------------------|
G|-------------------------9-9-9-9999999-9----------------------|
D|----2-22-4-44-6-66-9-99--9-9-9-9999999-9----------------------|
A|----2-22-4-44-6-66-9-99--7-7-7-7777777-7----------------------|
E|----0-00-2-22-4-44-7-77---------------------------------------|

2nd guitar:

e|--------------------------------------------------------------|
B|--------------------------------------------------------------|
G|-------------------------9-9-9---9-8-4-6----------------------|
D|----2-22-4-44-6-66-9-99--9-9-9---9-8-4-6----------------------|
A|----2-22-4-44-6-66-9-99--7-7-7---7-6-2-4----------------------|
E|----0-00-2-22-4-44-7-77---------------------------------------|

Chorus:

SIMULTANEOUS:

1st guitar:

e|--------------------------------------------------------------|
B|--------------------------------------------------------------|
G|----4-444-44444-4-444-44444-4-444-44444-4-444-44444-----------|
D|----x-xxx-xxxxx-x-xxx-xxxxx-x-xxx-xxxxx-x-xxx-xxxxx-----------|
A|----2-222-22222-2-222-22222-2-222-22222-2-222-22222-----------|
E|--------------------------------------------------------------|

2nd guitar:

e|--------------------------------------------------------------|
B|--------------------------------------------------------------|
G|----4-4-44-44----------------4-4-44-44------------------------|
D|----4-4-44-44-2-2-4-4-44-44--4-4-44-44-2-2-4-4-44-44----------|
A|----2-2-22-22-2-2-4-4-44-44--2-2-22-22-2-2-4-4-44-44----------|
E|--------------0-0-2-2-22-22------------0-0-2-2-22-22----------|


1st guitar:

e|--------------------------------------------------------------|
B|--------------------------------------------------------------|
G|----4-444-44444-4-444-44444-4-444-44444-4-444-44444-----------|
D|----x-xxx-xxxxx-x-xxx-xxxxx-x-xxx-xxxxx-x-xxx-xxxxx----REST---|
A|----2-222-22222-2-222-22222-2-222-22222-2-222-22222-----------|
E|--------------------------------------------------------------|

2nd guitar:

e|--------------------------------------------------------------|
B|--------------------------------------------------------------|
G|----4-4-44-44----------------4-4-44-44------------------------|
D|----4-4-44-44-2-2-4-4-44-44--4-4-44-44-2-2-4-4-44-44---REST---|
A|----2-2-22-22-2-2-4-4-44-44--2-2-22-22-2-2-4-4-44-44----------|
E|--------------0-0-2-2-22-22------------0-0-2-2-22-22----------|


1st guitar:

e|--------------------------------------------------------------|
B|--------------------------------------------------------------|
G|----4-444-44444-4-444-44444-4-444-44444-4-444-44444-----------|
D|----x-xxx-xxxxx-x-xxx-xxxxx-x-xxx-xxxxx-x-xxx-xxxxx-----------|
A|----2-222-22222-2-222-22222-2-222-22222-2-222-22222-----------|
E|--------------------------------------------------------------|

2nd guitar:

e|--------------------------------------------------------------|
B|--------------------------------------------------------------|
G|----4-4-44-44----------------4-4-44-44------------------------|
D|----4-4-44-44-2-2-4-4-44-44--4-4-44-44-2-2-4-4-44-44----------|
A|----2-2-22-22-2-2-4-4-44-44--2-2-22-22-2-2-4-4-44-44----------|
E|--------------0-0-2-2-22-22------------0-0-2-2-22-22----------|

Both guitars:

e|--------------------------------------------------------------|
B|--------------------------------------------------------------|
G|-----------------------------------------------------4--------|
D|----6-------------------------------2---------4------4--------|
A|----6-------------------------------2---------4------2--------|
E|----4-------------------------------0---------2---------------|
"So I guess I have to wait a lot till 8 o clock comes aroooouuund"

Acoustic bridge:

G


G                       C    D
When it comes to relationships

G                          C    D
And I don't mean just with girls

G                           C                     D
You're illustrations always point out just what's wrong with me it's


ELECTRIC

e|--------------------------------------------------------------|
B|--------------------------------------------------------------|
G|--------------------------------------------------------------|
D|----6-------------4----------------2-----------4--------------|
A|----6-------------4----------------2-----------4--------------|
E|----4-------------2----------------0-----------2--------------|
      Chapstick and chapped lips and things like chemistry it's

SIMULTANEOUS:

1st guitar:

e|--------------------------------------------------------------|
B|--------------------------------------------------------------|
G|----4-444-44444-4-444-44444-4-444-44444-4-444-44444-----------|
D|----x-xxx-xxxxx-x-xxx-xxxxx-x-xxx-xxxxx-x-xxx-xxxxx-----------|
A|----2-222-22222-2-222-22222-2-222-22222-2-222-22222-----------|
E|--------------------------------------------------------------|

2nd guitar:

e|--------------------------------------------------------------|
B|--------------------------------------------------------------|
G|----4-4-44-44----------------4-4-44-44------------------------|
D|----4-4-44-44-2-2-4-4-44-44--4-4-44-44-2-2-4-4-44-44----------|
A|----2-2-22-22-2-2-4-4-44-44--2-2-22-22-2-2-4-4-44-44----------|
E|--------------0-0-2-2-22-22------------0-0-2-2-22-22----------|

1st guitar:

e|--------------------------------------------------------------|
B|--------------------------------------------------------------|
G|----4-444-44444-4-444-44444-4-444-44444-4-444-44444-----------|
D|----x-xxx-xxxxx-x-xxx-xxxxx-x-xxx-xxxxx-x-xxx-xxxxx---6--4--2-|
A|----2-222-22222-2-222-22222-2-222-22222-2-222-22222---6--4--2-|
E|------------------------------------------------------4--2--0-|

2nd guitar:

e|--------------------------------------------------------------|
B|--------------------------------------------------------------|
G|----4-4-44-44----------------4-4-44-44------------------------|
D|----4-4-44-44-2-2-4-4-44-44--4-4-44-44-2-2-4-4-44-44--6--4--2-|
A|----2-2-22-22-2-2-4-4-44-44--2-2-22-22-2-2-4-4-44-44--6--4--2-|
E|--------------0-0-2-2-22-22------------0-0-2-2-22-22--4--2--0-|

Outro:

1st guitar:

e|--------------------------------------------------------------|
B|--------------------------------------------------------------|
G|--------------4-4-4-4----4-4----4-4-4-4----4-4-4-4------------|
D|----2-2-2-2---4-4-4-4----4-4----4-4-4-4----4-4-4-4----4-4-----|
A|----2-2-2-2---2-2-2-2----2-2----1-1-1-1----2-2-2-2----4-4-----|
E|----0-0-0-0-------------------------------------------2-2-----|

1st guitar:

e|--------------------------------------------------------------|
B|--------------------------------------------------------------|
G|--------------4-4-4-4----4-4----4-4-4-4----4-4-4-4------------|
D|----2-2-2-2---4-4-4-4----4-4----4-4-4-4----4-4-4-4----4-4-----|
A|----2-2-2-2---2-2-2-2----2-2----1-1-1-1----2-2-2-2----4-4-----|
E|----0-0-0-0-------------------------------------------2-2-----|

SIMULTANEOUS:

1st guitar:

e|--------------------------------------------------------------|
B|--------------------------------------------------------------|
G|--------------4-4-4-4----4-4----4-4-4-4----4-4-4-4------------|
D|----2-2-2-2---4-4-4-4----4-4----4-4-4-4----4-4-4-4----4-4-----|
A|----2-2-2-2---2-2-2-2----2-2----1-1-1-1----2-2-2-2----4-4-----|
E|----0-0-0-0-------------------------------------------2-2-----|

2nd guitar:

e|--------------------------------------------------------------|
B|----17-x-16-x-14-x-16-x-14-x-12----12-x-14-x-16-x-14-x-12-----|
G|--------------------------------13----------------------------|
D|--------------------------------------------------------------|
A|--------------------------------------------------------------|
E|--------------------------------------------------------------|

1st guitar:

e|--------------------------------------------------------------|
B|--------------------------------------------------------------|
G|--------------4-4-4-4----4-4----4-4-4-4----4-4-4-4------------|
D|----2-2-2-2---4-4-4-4----4-4----4-4-4-4----4-4-4-4----4-4-----|
A|----2-2-2-2---2-2-2-2----2-2----1-1-1-1----2-2-2-2----4-4-----|
E|----0-0-0-0-------------------------------------------2-2-----|

2nd guitar:

e|--------------------------------------------------------------|
B|----17-x-16-x-14-x-16-x-14-x-12----12-x-14-x-16-x-12----------|
G|--------------------------------13----------------------------|
D|--------------------------------------------------------------|
A|--------------------------------------------------------------|
E|--------------------------------------------------------------|

1st guitar:

e|--------------------------------------------------------------|
B|--------------------------------------------------------------|
G|--------------4-4-4-4----4-4----4-4-4-4----4-4-4-4------------|
D|----2-2-2-2---4-4-4-4----4-4----4-4-4-4----4-4-4-4----4-4-----|
A|----2-2-2-2---2-2-2-2----2-2----1-1-1-1----2-2-2-2----4-4-----|
E|----0-0-0-0-------------------------------------------2-2-----|

2nd guitar:

e|--------------------------------------------------------------|
B|----17-x-16-x-14-x-16-x-14-x-12----12-x-14-x-16-x-14-x-12-----|
G|--------------------------------13----------------------------|
D|--------------------------------------------------------------|
A|--------------------------------------------------------------|
E|--------------------------------------------------------------|

1st guitar:

e|--------------------------------------------------------------|
B|--------------------------------------------------------------|
G|--------------4-4-4-4----4-4----4-4-4-4----4-4-4-4------------|
D|----2-2-2-2---4-4-4-4----4-4----4-4-4-4----4-4-4-4----4-4-----|
A|----2-2-2-2---2-2-2-2----2-2----1-1-1-1----2-2-2-2----4-4-----|
E|----0-0-0-0-------------------------------------------2-2-----|

2nd guitar:

e|--------------------------------------------------------------|
B|----17-x-16-x-14-x-16-x-14-x-12----12---14---16---12----------|
G|--------------------------------13----------------------------|
D|--------------------------------------------------------------|
A|--------------------------------------------------------------|
E|--------------------------------------------------------------|

1st guitar:

e|--------------------------------------------------------------|
B|--------------------------------------------------------------|
G|--------------4-4-4-4----4-4----4-4-4-4----4-4-4-4------------|
D|----2-2-2-2---4-4-4-4----4-4----4-4-4-4----4-4-4-4----4-4-----|
A|----2-2-2-2---2-2-2-2----2-2----1-1-1-1----2-2-2-2----4-4-----|
E|----0-0-0-0-------------------------------------------2-2-----|

2nd guitar:

e|--------------------------------------------------------------|
B|----17---16---14---16---14---12----12---14---16---14---12-----|
G|--------------------------------13----------------------------|
D|--------------------------------------------------------------|
A|--------------------------------------------------------------|
E|--------------------------------------------------------------|

1st guitar:

e|--------------------------------------------------------------|
B|--------------------------------------------------------------|
G|--------------4-----------------4-4-4-4----4------------------|
D|----2---------4-----------------4-4-4-4----4--------let ring--|
A|----2---------2-----------------1-1-1-1----2------------------|
E|----0---------------------------------------------------------|

2nd guitar:

e|--------------------------------------------------------------|
B|----17---16---14---16---14---12----12---14---16---12----------| let ring
G|--------------------------------13----------------------------|
D|--------------------------------------------------------------|
A|--------------------------------------------------------------|
E|--------------------------------------------------------------|


That's about as good as it gets.
comments
We did not receive enough feedback on this tab! Please rate:
print report bad tab
1 2 3 4 5
I want to post or [tab]
guest
You may want to rate the tab now too:
select rating
Please do not post tabs as comments. Select "correction" instead!