Oops, an error
Loading. Please wait.

Five Score And Seven Years Ago Tab

12,969 views 6 this week
1 commentread comment
1 2 3 4 5
accurate
x 3
add to favorites launch autoscroll
font size
0
reset
Autoscroll
+/-
esc
set tempo
stop
Contributor
WARNING: You are trying to view
                                    content from Ultimate-Guitar.com
                                    in an unauthorized application,
                                    which is prohibited.

                                    Please use an official Ultimate
                                    Guitar Tabs application for iPhone,
                                    iPad or Android to access legitimate
                                    chords, guitar, bass, and drum tabs
                                    from Ultimate-Guitar.com database.

                                    Type "ultimate guitar tabs" in Apple
                                    App Store's or Android Market's
                                    search to find the application.
-------------------------------------------------
Come Right Out and Say It
-------------------------------------------------
Relient K
Five Score and Seven Years Ago

Drop D tuned down half a step.

.... = palmute


Intro and start of verse is piano

VERSE
eb|-----------------------------------------|
Bb|-----------------------------------------|
Gb|-----------------------------------------|
Db|-9999999---7777777---5555555---5555555---|
Ab|-9999999---7777777---5555555---5555555---|
Db|-9999999---7777777---5555555---5555555---|
    .......   .......   .......   .......

CHORUS
eb|---------------------------------------------------------------------|
Bb|---------------------------------------------------------------------|
Gb|---------------------------------------------------------------------|
Db|-0000000000000000-9999999999999999-5555555555555555-7777777777777777-|
Ab|-0000000000000000-9999999999999999-5555555555555555-7777777777777777-|
Db|-0000000000000000-9999999999999999-5555555555555555-7777777777777777-|

eb|---------------------------------------------------------------------|
Bb|---------------------------------------------------------------------|
Gb|---------------------------------------------------------------------|
Db|-0000000000000000-9999999999999999-5555555555555555-7777777777777777-|
Ab|-0000000000000000-9999999999999999-5555555555555555-7777777777777777-|
Db|-0000000000000000-9999999999999999-5555555555555555-7777777777777777-|
                                      ................ ................

VERSE
eb|-----------------------------------------|
Bb|-----------------------------------------|
Gb|-----------------------------------------|
Db|-9999999---7777777---5555555---5-5-555---|
Ab|-9999999---7777777---5555555---5-5-555---|
Db|-9999999---7777777---5555555---5-5-555---|

eb|-----------------------------------5-----5-|
Bb|-------------------------------2-3---2-3---|
Gb|-------------------------------------------|
Db|-9999999---7777777---5555555---------------|
Ab|-9999999---7777777---5555555---------------|
Db|-9999999---7777777---5555555---------------|
                                 ( delay/echo )

eb|-----------------------------------------|
Bb|-----------------------------------------|
Gb|-----------------------------------------|
Db|-9999999---7777777---5555555---5555555---|
Ab|-9999999---7777777---5555555---5555555---|
Db|-9999999---7777777---5555555---5555555---|
    .......   .......   .......   .......

eb|-----------------------------------------|
Bb|-----------------------------------------|
Gb|-----------------------------------------|
Db|-9999999---7777777---5555555---5555555---|
Ab|-9999999---7777777---5555555---5555555---|
Db|-9999999---7777777---5555555---5555555---|
    .......   .......   .......   ..slowly release

CHORUS
eb|---------------------------------------------------------------------|
Bb|---------------------------------------------------------------------|
Gb|---------------------------------------------------------------------|
Db|-0000000000000000-9999999999999999-5555555555555555-7777777777777777-|
Ab|-0000000000000000-9999999999999999-5555555555555555-7777777777777777-|
Db|-0000000000000000-9999999999999999-5555555555555555-7777777777777777-|

eb|---------------------------------------------------------------------|
Bb|---------------------------------------------------------------------|
Gb|---------------------------------------------------------------------|
Db|-0000000000000000-9999999999999999-5555555555555555-7777777777777777-|
Ab|-0000000000000000-9999999999999999-5555555555555555-7777777777777777-|
Db|-0000000000000000-9999999999999999-5555555555555555-7777777777777777-|
                                      ................ ................

SOLO
eb|------------------------------------------------------------------|
Bb|------------------------------------------------------------------|
Gb|------------------------------------------------------------------|
Db|-5-4-----------5-4-5-4-------------5-4-----------5-4-5-4----------|
Ab|-----5-----------------5-------5------5-----------------5-------5-|
Db|-------0-5-7-------------0-5-7----------0-5-7-------------0-5-7---|

eb|------------------------------------------------------------------|
Bb|------------------------------------------------------------------|
Gb|------------------------------------------------------------------|
Db|---4-0-------------4-0-------------4-0-------------4-0------------|
Ab|-2-----0-2-4-5---2-----2-0-4-5---2-----0-2-4-5---2-----2-0-4-5----|
Db|------------------------------------------------------------------|

BRIDGE
eb|--------------------------------------------------------------------------|
Bb|--------------------------------------------------------------------------|
Gb|--------------------------------------------------------------------------|
Db|-2-22-2----0--------99999999-77777777-22222222-00000000-99999999-77777777-|
Ab|-2-22-2----0--------99999999-77777777-22222222-00000000-99999999-77777777-|
Db|-2-22-2----0--------99999999-77777777-22222222-00000000-99999999-77777777-|
                       ........ ........ ........ ........ ........ ........

eb|------------------------------------------------------------------|
Bb|------------------------------------------------------------------|
Gb|------------------------------------------------------------------|
Db|-2-22-2----0--------99999999-77777777-22222222-00000000-99999999--|
Ab|-2-22-2----0--------99999999-77777777-22222222-00000000-99999999--|
Db|-2-22-2----0--------99999999-77777777-22222222-00000000-99999999--|
                       ........ ........ ........ ........ ........

eb|----------------------------------|
Bb|----------------------------------|
Gb|----------------------------------|
Db|-77777777777777777777777777777777-
Ab|-77777777777777777777777777777777-
Db|-77777777777777777777777777777777-
    ..................slowly release

CHORUS (slow) with piano then
CHORUS

eb|---------------------------------------------------------------------|
Bb|---------------------------------------------------------------------|
Gb|---------------------------------------------------------------------|
Db|-0000000000000000-9999999999999999-5555555555555555-7777777777777777-|
Ab|-0000000000000000-9999999999999999-5555555555555555-7777777777777777-|
Db|-0000000000000000-9999999999999999-5555555555555555-7777777777777777-|

eb|---------------------------------------------------------------------|
Bb|---------------------------------------------------------------------|
Gb|---------------------------------------------------------------------|
Db|-9999999999999999-0000000000000000-5555555555555555-7777777777777777-|
Ab|-9999999999999999-0000000000000000-5555555555555555-7777777777777777-|
Db|-9999999999999999-0000000000000000-5555555555555555-7777777777777777-|

eb|---------------------------------------------------------------------|
Bb|---------------------------------------------------------------------|
Gb|---------------------------------------------------------------------|
Db|-9999999999999999-0000000000000000-5555555555555555-77777777---------|
Ab|-9999999999999999-0000000000000000-5555555555555555-77777777---------|
Db|-9999999999999999-0000000000000000-5555555555555555-77777777---------|
                                      ................ ........

Th'end

=======================================================================================
http://www.ultimate-guitar.com/tabs/r/relient_k/come_right_out_and_say_it_tab.htm
=======================================================================================

-----------------------------------------------------
I NEED YOU -Intro tab only. Sorry
-----------------------------------------------------

Tabbed by: guitar-pro_92 a.k.a. Colby Crosby
Email: guitar-pro_92@hotmail.com

Tuning:Drop Db


Intro

tuning drop Db


harmonics and noise
\/   \/   \/    \/


Eb|--X--0-----<15>---<13>~-|---------------------------------|-------------------------------|
Bb|--X--0-----<15>---<13>~-|---------------------------------|--6-6-6-6-6--------------------|
Gb|--X--0--<15>------------|---------------------------------|--9-9-9-9-9--------------------|
Db|--X--0--<15>------------|--0-0-0~--------------------0----|--------------------------0~---|
Ab|--X--0------------------|--0-0-0~--------------------0----|--------------------------0~---|
Eb|--X--0------------------|--0-0-0~----------7--9--11b-0----|-------------7---9---11b--0~---|x3

then
|----------------------------------------------------------------------------|
|----------------------------------------------------------------------------|
|----------------------------------------------------------------------------|
|--0-0-0~--0-0-0~------------------------------------------------------------|
|--0-0-0~--0-0-0~------------------------------------------------------------|
|--0-0-0~--0-0-0~------------------------------------------------------------|


will try to get the rest of the song up by the end of the month


the chorus is this though for guitar 2 and 1

Guitar 1
Eb|----------------------------------------------------------------------------|
Bb|----------------------------------------------------------------------------|
Gb|--14-------10-------7------5------------------------------------------------|
Db|---X-------X--------X------X------------------------------------------------|
Ab|--12(x16)--8-(x16)--5(x16)-3(x16)-------------------------------------------|
Eb|----------------------------------------------------------------------------|

Guitar 2

Eb|----------------------------------------------------------------------------|
Bb|----------------------------------------------------------------------------|
Gb|----------------------------------------------------------------------------|
Db|--0-------3---------8--------10---------------------------------------------|
Ab|--0-------3---------8--------10---------------------------------------------|
Eb|--0(x16)--3(x16)----8(x16)---10(x16)----------------------------------------|

| /  slide up
| \  slide down
| h  hammer-on
| p  pull-off
| ~  vibrato
| <>  harmonic
| x  Mute note
===============================================================================

THe end

=======================================================================================
http://www.ultimate-guitar.com/tabs/r/relient_k/i_need_you_intro_tab.htm
=======================================================================================

------------------------------------
THE BEST THING
------------------------------------

The Best Thing
Relient K
Five Score and Seven Years Ago

Drop D tuned down half a step.

.... = palmute

eb|--------------------------------------------------------|
Bb|--------------------------------------------------------|
Gb|--------------------------------------------------------|
Db|-10------------2-----3-------12-------5-------10--------|
Ab|-10------------2-----3-------12-------5-------10--------|
Db|-10------------2-----3-------12-------5-------10--------|

VERSE
eb|-------------------------------------------------------|
Bb|-------------------------------------------------------|
Gb|-------------------------------------------------------|
Db|-10-10-10-10-10--10-10-10-10-10--22-22222--33-33333----|
Ab|-10-10-10-10-10--10-10-10-10-10--22-22222--33-33333----|
Db|-10-10-10-10-10--10-10-10-10-10--22-22222--33-33333----|
          ........        ........     .....     .....

eb|--------------------------------|
Bb|--------------------------------|
Gb|--------------------------------|
Db|-12-12-12-12-12-12-12--55-55555-|
Ab|-12-12-12-12-12-12-12--55-55555-|
Db|-12-12-12-12-12-12-12--55-55555-|
          ..............     .....        

repeat and then..

eb|-----------------------|
Bb|-----------------------|
Gb|-----------------------|
Db|-33333333333-----------|
Ab|-33333333333-----------|
Db|-33333333333-----------|
    .....slowly release


CHORUS
eb|----------------------------------------------------------------|
Bb|----------------------------------------------------------------|
Gb|----------------------------------------------------------------|
Db|-10-10-10-10-10-10-10-10---7777777777777777---33333333-55555555-|
Ab|-10-10-10-10-10-10-10-10---7777777777777777---33333333-55555555-|
Db|-10-10-10-10-10-10-10-10---7777777777777777---33333333-55555555-|


eb|-----------------------|
Bb|-----------------------|
Gb|-----------------------|
Db|-10--------------------|
Ab|-10--------------------|
Db|-10--------------------|

VERSE

BRIDGE/Pre Chorus
eb|-------------------------------------------------------------------|
Bb|-------------------------------------------------------------------|
Gb|-------------------------------------------------------------------|
Db|-3------------5--------------7-------------10-10-10-10-10-10-10-10-|
Ab|-3------------5--------------7-------------10-10-10-10-10-10-10-10-|
Db|-3------------5--------------7-------------10-10-10-10-10-10-10-10-|
                                              .......................

eb|--------------------------------------|
Bb|--------------------------------------|
Gb|--------------------------------------|
Db|-12--12--12--12--5--5--5--5--33333333-|
Ab|-12--12--12--12--5--5--5--5--33333333-|
Db|-12--12--12--12--5--5--5--5--33333333-|


CHORUS
eb|----------------------------------------------------------------|
Bb|----------------------------------------------------------------|
Gb|----------------------------------------------------------------|
Db|-10-10-10-10-10-10-10-10---7777777777777777---33333333-55555555-| x2
Ab|-10-10-10-10-10-10-10-10---7777777777777777---33333333-55555555-|
Db|-10-10-10-10-10-10-10-10---7777777777777777---33333333-55555555-|

eb|-------------------------------------|
Bb|-------------------------------------|
Gb|----------77777777-------------------|
Db|-77777777-77777777-33333333-55555555-|
Ab|-77777777-55555555-33333333-55555555-|
Db|-77777777-00000000-33333333-55555555-|

Bridge /Bridge 2

It's mainly piano but you can play along with guitar

eb|--------------------------------------------|
Bb|--------------------------------------------|
Gb|--------------------------------------------|
Db|-7-----------3------------10-----------5----|
Ab|-7-----------3------------10-----------5----|
Db|-7-----------3------------10-----------5----|

eb|-----------------------------------------------------------------------
Bb|-----------------------------------------------------------------------
Gb|-----------------------------------------------------------------------
Db|-0000000000000000-88888888888888-8-8-3-33333333333333-5555555555555555-
Ab|-0000000000000000-88888888888888-8-8-3-33333333333333-5555555555555555-
Db|-0000000000000000-88888888888888-8-8-3-33333333333333-5555555555555555-
    ................ ..............       .............. ................

CHORUS
eb|----------------------------------------------------------------|
Bb|----------------------------------------------------------------|
Gb|----------------------------------------------------------------|
Db|-10-10-10-10-10-10-10-10---7777777777777777---33333333-55555555-| 
Ab|-10-10-10-10-10-10-10-10---7777777777777777---33333333-55555555-|
Db|-10-10-10-10-10-10-10-10---7777777777777777---33333333-55555555-|

eb|-------------------------------------|
Bb|-------------------------------------|
Gb|----------77777777-------------------|
Db|-77777777-77777777-33333333-55555555-|
Ab|-77777777-55555555-33333333-55555555-|
Db|-77777777-00000000-33333333-55555555-|

eb|----------------------------------------------------------------|
Bb|----------------------------------------------------------------|
Gb|----------------------------------------------------------------|
Db|-10-10-10-10-10-10-10-10---7777777777777777---33333333-55555555-| 
Ab|-10-10-10-10-10-10-10-10---7777777777777777---33333333-55555555-|
Db|-10-10-10-10-10-10-10-10---7777777777777777---33333333-55555555-|

eb|-------|
Bb|-------|
Gb|-------|
Db|-10----|
Ab|-10----|
Db|-10----|


Th'end.

=======================================================================================
http://www.ultimate-guitar.com/tabs/r/relient_k/best_thing_tab.htm
=======================================================================================

---------------------
FORGIVEN
---------------------

Song:Forgiven
Artist:Relient K
Album:Five Score And Seven Years Ago
Label:Capitol/Gotee

Eb tuning

~=vibrato

Verse 1
Eb-------------------------------------------------------------------|
Bb-------------------------------------------------------------------|
Gb-------------------------------------------------------------------|
Db-------------------------------------------------------------------|
Ab-77777777777777777777777777777777----------------------------------|
Eb----------------------------------33333333333333333333333333333333-|
PM..................................................................

Eb--------------------------------------------------------------------|
Bb--------------------------------------------------------------------|
Gb--------------------------------------------------------------------|
Db--------------------------------------------------------------------|
Ab-----------------------------------77777777777777777777777777777777-|
Eb-5555555555555555-8888888888888888----------------------------------|
PM...................................................................

Eb-------------------------------------------------------------------|
Bb-------------------------------------------------------------------|
Gb-------------------------------------------------------------------|
Db-------------------------------------------------------------------|
Ab-77777777777777777777777777777777----------------------------------|
Eb----------------------------------33333333333333333333333333333333-|
PM..................................................................

Eb--------------------------------------------------------------------|
Bb--------------------------------------------------------------------|
Gb--------------------------------------------------------------------|
Db--------------------------------------------------------------------|
Ab-----------------------------------77777777777777777777777777777777-|
Eb-5555555555555555-8888888888888888----------------------------------|
PM...................................................................

(NOTE: you can either strum the first string or the whole power chord
 in the verses)

Pre-Chorus

Guitar 1
Eb---------------------------------------------------------------------|
Bb---------------------------------------------------------------------|
Gb-7777777777777777-5555555555555555-4444444444444444-8888888888888888-|
Db-7777777777777777-5555555555555555-4444444444444444-9999999999999999-|
Ab-5555555555555555-3333333333333333-2222222222222222-6666666666666666-|
Eb---------------------------------------------------------------------|

Guitar 2
Eb-----------------------------------------------|
Bb-----------------------------------------------|
Gb-12/12/12/11/11/11/11/12/12/12/12/11/11/11/11/-
Db--x/-x/-x/-x/-x/-x/-x/-x/-x/-x/-x/-x/-x/-x/-x/-|x2
Ab-10/10/10/-9/-9/-9/-9/10/10/10/10/-9/-9/-9/-9/-|
Eb-----------------------------------------------|

Eb----------------------------------|
Bb----------------------------------|
Gb-88888888-11/11/11/11/11/11/11/11-|
Db-xxxxxxxx--x/-x/-x/-x/-x/-x/-x/-x-|
Ab-66666666--9/-9/-9/-9/-9/-9/-9/-9-|
Eb----------------------------------|

Chorus

Guitar 1
Eb---------------------------------------------------------------------|
Bb---------------------------------------------------------------------|
Gb-9999999999999999------------------6666666666666666-4444444444444444-|
Db-9999999999999999-7777777777777777-6666666666666666-4444444444444444-| x2
Ab-7777777777777777-7777777777777777-4444444444444444-2222222222222222-|
Eb------------------5555555555555555-----------------------------------|

Guitar 2
Eb-------------------------------------------------|
Bb-------------------------------------------------|
Gb-------------------------------------------------|
Db-13-------14-------6------13------8------11------| x2
Ab--x-(x16)--x-(x16)-x-(x8)--x-(x8)-x-(x8)--x-(x8)-|
Eb-11-------12-------4------11------6-------9------|


Verse 2
Eb-------------------------------------------------------------------|
Bb-------------------------------------------------------------------|
Gb-------------------------------------------------------------------|
Db-------------------------------------------------------------------|
Ab-77777777777777777777777777777777----------------------------------|
Eb----------------------------------33333333333333333333333333333333-|
PM..................................................................

Eb--------------------------------------------------------------------|
Bb--------------------------------------------------------------------|
Gb--------------------------------------------------------------------|
Db--------------------------------------------------------------------|
Ab-----------------------------------77777777777777777777777777777777-|
Eb-5555555555555555-8888888888888888----------------------------------|
PM...................................................................

Eb-------------------------------------------------------------------|
Bb-------------------------------------------------------------------|
Gb-------------------------------------------------------------------|
Db-------------------------------------------------------------------|
Ab-77777777777777777777777777777777----------------------------------|
Eb----------------------------------33333333333333333333333333333333-|
PM..................................................................

Eb--------------------------------------------------------------------|
Bb--------------------------------------------------------------------|
Gb--------------------------------------------------------------------|
Db--------------------------------------------------------------------|
Ab-----------------------------------77777777777777777777777777777777-|
Eb-5555555555555555-8888888888888888----------------------------------|
PM...................................................................

Pre-Chorus 2

Guitar 1
Eb----------------------------------------------------------|
Bb----------------------------------------------------------|
Gb-7-7-7-7-7-7-7-7-5-5-5-5-5-5-5-5-4-4-4-4-4-4-4-4-88888888-|
Db-7-7-7-7-7-7-7-7-5-5-5-5-5-5-5-5-4-4-4-4-4-4-4-4-99999999-|
Ab-5-5-5-5-5-5-5-5-3-3-3-3-3-3-3-3-2-2-2-2-2-2-2-2-66666666-|
Eb----------------------------------------------------------|

Guitar 2
Eb--------------------------------------|
Bb-12-12-10-10---12-12--10-10-----------|
Gb-12-12-11-11---12-12--11-11--88888888-|
Db-----------------------------xxxxxxxx-|
Ab-----------------------------66666666-|
Eb--------------------------------------|

Chorus

Guitar 1
Eb---------------------------------------------------------------------|
Bb---------------------------------------------------------------------|
Gb-9999999999999999------------------6666666666666666-4444444444444444-|
Db-9999999999999999-7777777777777777-6666666666666666-4444444444444444-| x2
Ab-7777777777777777-7777777777777777-4444444444444444-2222222222222222-|
Eb------------------5555555555555555-----------------------------------|

Guitar 2
Eb-------------------------------------------------|
Bb-------------------------------------------------|
Gb-------------------------------------------------|
Db-13-------14-------6------13------8------11------| x2
Ab--x-(x16)--x-(x16)-x-(x8)--x-(x8)-x-(x8)--x-(x8)-|
Eb-11-------12-------4------11------6-------9------|

Bridge
(NOTE: this is a guitar part in the background, you have to listen
 closely to hear it, and also at this part it sounds like the verse but the
 guitar is not playing the riff from the verse)

Guitar 1
Eb----------------------------------------------------------12~-|
Bb----------------------------------------------------------12~-|
Gb--------------------------------------------------------------|
Db---------------------------------5-5-5------5-5-5-------------|
Ab---------7-7-7-----------5-5h7-7------------------5-5-5-------|
Eb-7-7-5-5------------------------------------------------------|

Chorus

Guitar 1
Eb---------------------------------------------------------------------|
Bb---------------------------------------------------------------------|
Gb-9999999999999999------------------6666666666666666-4444444444444444-|
Db-9999999999999999-7777777777777777-6666666666666666-4444444444444444-| x2
Ab-7777777777777777-7777777777777777-4444444444444444-2222222222222222-|
Eb------------------5555555555555555-----------------------------------|

Guitar 2
Eb-------------------------------------------------|
Bb-------------------------------------------------|
Gb-------------------------------------------------|
Db-13-------14-------6------13------8------11------| x2
Ab--x-(x16)--x-(x16)-x-(x8)--x-(x8)-x-(x8)--x-(x8)-|
Eb-11-------12-------4------11------6-------9------|

Outro
Eb-------------------------------------------------------------------|
Bb-------------------------------------------------------------------|
Gb-------------------------------------------------------------------|
Db-------------------------------------------------------------------|
Ab-77777777777777777777777777777777----------------------------------|
Eb----------------------------------33333333333333333333333333333333-|
PM..................................................................

Eb--------------------------------------------------------------------|
Bb--------------------------------------------------------------------|
Gb--------------------------------------------------------------------|
Db--------------------------------------------------------------------|
Ab-----------------------------------77777777777777777777777777777777-|
Eb-5555555555555555-8888888888888888----------------------------------|
PM...................................................................

Eb-------------------------------------------------------------------|
Bb-------------------------------------------------------------------|
Gb-------------------------------------------------------------------|
Db-------------------------------------------------------------------|
Ab-77777777777777777777777777777777----------------------------------|
Eb----------------------------------33333333333333333333333333333333-|
PM..................................................................

Eb------------------7----|
Bb------------------x----|
Gb------------------9--9-|
Db---------------------9-|
Ab---------------------7-|
Eb-5555555555555555------|
PM.................

That's it please rate and comment

Tabbed by HolyBlood8


=======================================================================================
http://www.ultimate-guitar.com/tabs/r/relient_k/forgiven_ver2_tab.htm
=======================================================================================


----------------------------------------
MUST HAVE DONE SOMETHING RIGHT
----------------------------------------

Song: Must Have Done Something Right
Artist: Relient K
Album: Five Score and Seven Years Ago
Label: Capitol/Gotee

Eb tuning

Verse 1
Eb--333-333-----------555-555-555-555-|
Bb--333-333--777-777--555-555-555-555-|
Gb--444-444--777-777--444-444-444-444-|
Db--555-555--777-777--777-777-777-777-| x2
Ab--555-555--555-555--777-777-777-777-|
Eb--333-333-----------555-555-555-555-|

Pre-Chorus
Eb-0-0-000-3-33-3333--------------------0-0-000-3-33-3333----------|
Bb-0-0-000-3-33-3333--------------------0-0-000-3-33-3333----------|
Gb-0-0-000-4-44-4444-7-77-777-----------0-0-000-4-44-4444-7-77-777-|
Db-2-2-222-5-55-5555-7-77-777-7-77-7777-2-2-222-5-55-5555-7-77-777-|
Ab-2-2-222-5-55-5555-5-55-555-7-77-7777-2-2-222-5-55-5555-5-55-555-|
Eb-0-0-000-3-33-3333----------5-55-5555-0-0-000-3-33-3333----------|

Eb--------------------|
Bb--------------------|
Gb--------------------|
Db-7-77-7777-77777777-|
Ab-7-77-7777-77777777-|
Eb-5-55-5555-55555555-|

Chorus
Eb----------------------------------------------------------------------|
Bb----------------------------------------------------------------------|
Gb-777-----777-----555-----555-----777-----777-----555-----555----------|
Db-777-777-777-777-555-555-555-555-777-777-777-777-555-555-555-555-7----|
Ab-555-777-555-777-333-555-333-555-555-777-555-777-333-555-333-555-7x16-|
Eb-----555-----555-----333-----333-----555-----555-----333-----333-5----|

Verse 2
Eb--333-333-----------555-555-555-555-|
Bb--333-333--777-777--555-555-555-555-|
Gb--444-444--777-777--444-444-444-444-|
Db--555-555--777-777--777-777-777-777-| x5
Ab--555-555--555-555--777-777-777-777-|
Eb--333-333-----------555-555-555-555-|

Pre-Chorus
Eb-0-0-000-3-33-3333--------------------0-0-000-3-33-3333----------|
Bb-0-0-000-3-33-3333--------------------0-0-000-3-33-3333----------|
Gb-0-0-000-4-44-4444-7-77-777-----------0-0-000-4-44-4444-7-77-777-|
Db-2-2-222-5-55-5555-7-77-777-7-77-7777-2-2-222-5-55-5555-7-77-777-|
Ab-2-2-222-5-55-5555-5-55-555-7-77-7777-2-2-222-5-55-5555-5-55-555-|
Eb-0-0-000-3-33-3333----------5-55-5555-0-0-000-3-33-3333----------|

Eb--------------------|
Bb--------------------|
Gb--------------------|
Db-7-77-7777-77777777-|
Ab-7-77-7777-77777777-|
Eb-5-55-5555-55555555-|

Chorus
Eb----------------------------------------------------------------------|
Bb----------------------------------------------------------------------|
Gb-777-----777-----555-----555-----777-----777-----555-----555----------|
Db-777-777-777-777-555-555-555-555-777-777-777-777-555-555-555-555-7----|
Ab-555-777-555-777-333-555-333-555-555-777-555-777-333-555-333-555-7x16-|
Eb-----555-----555-----333-----333-----555-----555-----333-----333-5----|

Bridge
Eb----------5-5-5555------------3-3-3333--6-6-6666--1-1-1111-----------------|
Bb7-7-7777--5-5-5555--5-5-5555--3-3-3333--6-6-6666--1-1-1111--5-5-5555-5-5-5-|
Gb7-7-7777--6-6-6666--5-5-5555--4-4-4444--7-7-7777--2-2-2222--5-5-5555-5-5-5-|
Db7-7-7777--7-7-7777--5-5-5555--5-5-5555--8-8-8888--3-3-3333--5-5-5555-5-5-5-|
Ab5-5-5555--7-7-7777--3-3-3333--5-5-5555--8-8-8888--3-3-3333--3-3-3333-3-3-3-|
Eb----------5-5-5555------------3-3-3333--6-6-6666--1-1-1111-----------------|

Chorus 2
Eb---------------------------------|
Bb---------------------------------|
Gb-777-----777-----555-----555-----|
Db-777-777-777-7-7-555-555-555-555-|
Ab-555-777-555-7-7-333-555-333-555-|
Eb-----555-----5-5-----333-----333-|

Eb---------------------------------|
Bb---------------------------------|
Gb-777-----777-----555-----555-----|
Db-777-777-777-777-555-555-555-555-|
Ab-555-777-555-777-333-555-333-555-|
Eb-----555-----555-----333-----333-|


=======================================================================================
http://www.ultimate-guitar.com/tabs/r/relient_k/must_have_done_something_right_tab.htm
=======================================================================================

--------------------------------------------
Give Until There's Nothing Left
--------------------------------------------

A                  F#m               
No one told me the right way
                     E               
The right way to go about this
        D                    A          
So I’ll figure it out for myself
      A                       F#m     
Cause how much is too much to give you
       E                                  
Well I may never know so 
          D                          A               
I’ll just give until there’s nothing else

          A                  
Yeah I’ll give, give, give, until there’s nothing else
E                                        
Give my life, until it all runs out
Bm                   D                           
Give, give, and I’ll have no regrets
     E                  D                  A                
I’ll give until there’s nothing left, I’ll give


No one told me how bad I need you
But I somehow arrived at that conclusion all by myself
And I want all you have to offer
So I’ll offer myself and I’ll just give until there’s nothing else

Yeah I’ll give, give, give
Until there’s nothing else
Give my all, until it all runs out
Give, give, and I’ll have no regrets
I’ll give until there’s nothing left, I’ll 
Give, give, give
Until there’s nothing else
Give my all, until it all runs out
Give, give, and I’ll have no regrets
I’ll give until there’s nothing left

Bm
Sometime it seems like all I ever do
   D                                               
Is ask for things, until I ask too much of you
    A                                               
But that’s not the way that I want to live
G                                       D              
I need to change and something’s got to give
     E                                   
Yeah something’s got to ...
A
Give, give, give
Until there’s nothing else
Give my life, until it all runs out
Give, give, and I’ll have no regrets
I’ll give until there’s nothing left, I’ll 
Give, give, give
Until there’s nothing else
Give my All, until it all runs out
Give, give
I’ll give until there’s nothing left
I’ll Give

=======================================================================================
http://www.ultimate-guitar.com/tabs/r/relient_k/give_until_theres_nothing_left_crd.htm
=======================================================================================

-----------------------------------
Devastation And Reform
-----------------------------------

Intro:
Lead Guitar [x2]
Eb|---------------------------------------------------------------------|
Ab|------------65-------------------------------------------------------|
Db|----57---57----7------57----57---57----------------------------------| 
Gb|-00---00----------77-----77----7----5-5555555555557770000000000000000|
Bb|---------------------------------------------------------------------|
Eb|---------------------------------------------------------------------|

Rhythm Guitar (On Second Time)
|-----------------------|
|-----------------------|
|-7-----------------7---| 
|-7 x8--7-----5-----7 x8|
|-5-----7 x8--5 x8--5---|
|-------5-----3---------| 

Verse 1: (Slight Distortion)
|--5--5--5--555--5--5--5--555--3--3--3--333--5--------------|
|--6--6--6--666--6--6--6--666--5--5--5--555--6--------------|
|--7--7--7--777--7--7--7--777--5--5--5--555--7--------------| 
|--7--7--7--777--7--7--7--777--5--5--5--555--7--------------|
|--5--5--5--555--5--5--5--555--3--3--3--333--5--------------|
|-----------------------------------------------------------|

|-------12------------------5------------| 
|-----6-------------------------------65-|
|---7------------7--------7---------7----| let ring
|-8---------------------7---------7------|
|-------------5-------5------------------|
|----------------------------------------| 

Pre-Chorus:
|---------------xxxxxxxx------------------|
|---------------xxxxxxxx------------------|
|3-33-----7-77--xxxxxxxx------------------| 
|3-33-----7-77--xxxxxxxx--8---/10---/11---|
|1-11-----5-55--xxxxxxxx--8 x8/10 x8/11 x8|
|---------------xxxxxxxx--6---/8----/9----| 
Chorus:
Gtr. 1:
|-------------------------------------------------|
|-------------------------------------------------|
|-7-----9999--10101010--10-----12121212--14141414-| 
|-x x8--xxxx---x-x-x-x---x x8---x-x-x-x---x-x-x-x-|
|-5-----7777---8-8-8-8---8-----10101010--12121212-|
|-------------------------------------------------|

|------------------------------------| 
|------------------------------------|
|-14-----12-----9-----10101010--9999-|
|--x x8---x x8--x x8---x-x-x-x--xxxx-| 
|-12-----10-----7------8-8-8-8--7777-| 
|------------------------------------|

|-----------------------------------------------|
|-----------------------------------------------|
|7-----9999--10101010--10-----12121212--14141414| 
|x x8--xxxx---x-x-x-x---x x8---x-x-x-x---x-x-x-x|
|5-----7777---8-8-8-8---8-----10101010--12121212|
|-----------------------------------------------|

|---------------| 
|---------------|
|-12------7-----|
|--x x16--x x16-|
|-10------5-----| 
|---------------|

Gtr. 2:
|-------------------------------------------------|
|-------------------------------------------------|
|-3-----------7-----5-----3-----------------------| 
|-3 x8--3-----7 x8--5 x8--3 x8--3------5-----8----| 
|-1-----3 x8--5-----3-----1-----3 x 8--5 x8--8 x8-|
|-------1-----------------------1------3-----6----| 

Interlude:
Gtr. 1
|---------------------------------------------------------------------|
|------------65-------------------------------------------------------|
|----57---57----7------57----57---57----------------------------------| 
|-00---00----------77-----77----7----5-5555555555557770000000000000000|
|---------------------------------------------------------------------|
|---------------------------------------------------------------------|

Gtr.2 
|---------------------------------------------------------------------|
|---------------------------------------------------------------------|
|-----------------------------------------------------7777777777777777| 
|-----------------------------------------------------7777777777777777|
|-----------------------------------------------------5555555555555555|
|---------------------------------------------------------------------|

Verse 2:
|------------------------|
|------------------------|
|--------------5 x8------| 
|8 x8--------------------|
|-------5 x8--------5 x8-|
|------------------------|

|-----------------------------------------|
|-----------------------------------------|
|-----7---------7----------------7----7---|
|---7---------7--------7----7----7----7---| 
|-5---------5----------7----7----5----5---|
|----------------------5----5-------------|

Pre-Chorus 2:
|-----------------xxxxxxxx------------------|
|-----------------xxxxxxxx------------------|
|3-3/14-----7-77--xxxxxxxx------------------| 
|3-3/x------7-77--xxxxxxxx--8---/10---/12---|
|1-1/12-----5-55--xxxxxxxx--8 x8/10 x8/12 x8|
|-----------------xxxxxxxx--6---/8----/10---|
 
Chorus 2:
Gtr. 1:
|-------------------------------------------------|
|-------------------------------------------------|
|-7-----9999--10101010--10-----12121212--14141414-| 
|-x x8--xxxx---x-x-x-x---x x8---x-x-x-x---x-x-x-x-|
|-5-----7777---8-8-8-8---8-----10101010--12121212-|
|-------------------------------------------------|

|------------------------------------| 
|------------------------------------|
|-14-----12-----9-----10101010--9999-|
|--x x8---x x8--x x8---x-x-x-x--xxxx-| 
|-12-----10-----7------8-8-8-8--7777-| 
|------------------------------------|

|-----------------------------------------------|
|-----------------------------------------------|
|7-----9999--10101010--10-----12121212--14141414| 
|x x8--xxxx---x-x-x-x---x x8---x-x-x-x---x-x-x-x|
|5-----7777---8-8-8-8---8-----10101010--12121212|
|-----------------------------------------------|

|---------------| 
|---------------|
|-12------7-----|
|--x x16--x x16-|
|-10------5-----| 
|---------------|

Gtr. 2:
|-------------------------------------------------|
|-------------------------------------------------|
|-3-----------7-----5-----3-----------------------| 
|-3 x8--3-----7 x8--5 x8--3 x8--3------5-----8----| 
|-1-----3 x8--5-----3-----1-----3 x 8--5 x8--8 x8-|
|-------1-----------------------1------3-----6----| 

Interlude: No guitar first part until, "A shell of what I had when..."
|----------------------------------------|
|----------------------------------------| 
|-3-----5---------------------------7----|
|-3 x8--5 x8--5-----7-----88888888--7--7-|
|-1-----3-----5 x8--7 x8--88888888--5--7-|
|-------------3-----5-----66666666-----5-|
PM**********

Chorus 3:
Gtr. 1:
|-------------------------------------------------|
|-------------------------------------------------|
|-7-----9999--10101010--10-----12121212--14141414-| 
|-x x8--xxxx---x-x-x-x---x x8---x-x-x-x---x-x-x-x-|
|-5-----7777---8-8-8-8---8-----10101010--12121212-|
|-------------------------------------------------|

|------------------------------------| 
|------------------------------------|
|-14-----12-----9-----10101010--9999-|
|--x x8---x x8--x x8---x-x-x-x--xxxx-| 
|-12-----10-----7------8-8-8-8--7777-| 
|------------------------------------|

|-----------------------------------------------|
|-----------------------------------------------|
|7-----9999--10101010--10-----12121212--14141414| 
|x x8--xxxx---x-x-x-x---x x8---x-x-x-x---x-x-x-x|
|5-----7777---8-8-8-8---8-----10101010--12121212|
|-----------------------------------------------|

|---------------| 
|---------------|
|-12------7-----|
|--x x16--x x16-|
|-10------5-----| 
|---------------|

Gtr. 2:
|-------------------------------------------------|
|-------------------------------------------------|
|-3-----------7-----5-----3-----------------------| 
|-3 x8--3-----7 x8--5 x8--3 x8--3------5-----8----| 
|-1-----3 x8--5-----3-----1-----3 x 8--5 x8--8 x8-|
|-------1-----------------------1------3-----6----| 

Outro:
Gtr. 1
|-------------------------------------------------------55-5-5-55-5-5-5-|
|--------------6-5--------------------------------------66-6-6-66-6-6-6-| 
|---5-7----5-7----7---5-7---5-7---5-7-------------------77-7-7-77-7-7-7-|
|00----00----------77----77-----7----5-555555555555777--77-7-7-77-7-7-7-|
|-------------------------------------------------------55-5-5-55-5-5-5-| 
|-----------------------------------------------------------------------|

Gtr. 2
|-------------------------------------------------------55-5-5-55-5-5-5-|
|-------------------------------------------------------66-6-6-66-6-6-6-| 
|7777777777777777---------------------------------------77-7-7-77-7-7-7-|
|7777777777777777--7777777777777777--5555555555555555---77-7-7-77-7-7-7-|
|5555555555555555--7777777777777777--5555555555555555---55-5-5-55-5-5-5-| 
|------------------5555555555555555--3333333333333333-------------------|

Lyrics:
Fear can drive stick
And it's taking me down this road
A road down which
I swore I'd never go                           Verse 1 
And here I sit
Thinking of God knows what
Afraid to admit
I might self-destruct

So lock the windows
And bolt the door
Cuz I've got enough problems                   Pre-Chorus 1
Without creating more 

I feel like I was born
To devastation and reform
Destroying everything I loved
And the worst part is                           Chorus 1
I pull my heart out, reconstruct
And in the end it's nothing but 
A shell of what I had when I first started

Usually I'll cause my own first hit
It seems to me to be slightly masochistic
But there'd be no story
Without all this descension                     Verse 2 
So I inflict the conflict
With the utmost of intention

So lock the windows
And bolt the door
Cuz I've got enough problems                    Pre-Chorus 2
Without creating more

I feel like I was born 
To devastation and reform
Destroying everything I loved
And the worst part is                            Chorus 2
I pull my heart out, reconstruct
And in the end it's nothing but
A shell of what I had when I first started 

Thank you God
For giving me the insight
So I might make
These wrongs right
If and when
There ever is a next time
Cuz failure is a blessing in disguise            Interlude
Pull my heart out, reconstruct
And in the end it's nothing but
A shell of what I had when I first started
A shell of what I had when I first started

I feel like I was born
To devastation and reform 
Destroying everything I loved
And the worst part is                            Chorus 3
I pull my heart out, reconstruct
And in the end it's nothing but
A shell of what I had when I first started

When I first started
A shell of what I had when I first started       Outro

This is only my first tab but I think its right on.  Enjoy!

=======================================================================================
http://www.ultimate-guitar.com/tabs/r/relient_k/devastation_and_reform_ver2_tab.htm
=======================================================================================

----------------------------------
IM TAKING YOU WITH ME
----------------------------------

Artist: Relient K
Song: I'm Taking You With Me
Album: Five Score and Seven Years Ago

Tuning: half-step down (Eb Ab Db Gb Bb eb)

Intro

eb|----------------------------------------|
Bb|----------------------------------------|
Gb|----------------------------------9\7---|
Db|----------------------------------9\7---|
Ab|----------------555/7777777777777-7\5---|
Eb|-77777\222/33333------------------------|
    ***** ************ *************

eb|----------------------------------------|
Bb|----------------------------------------|
Gb|--------------------99-9-99-9-99-9-9\7--|  x2
Db|--99-99999\55-55555-99-9-99-9-99-9-9\7--|
Ab|--99-99999\55-55555-77-7-77-7-77-7-7\5--|
Eb|--77-77777\33-33333---------------------|
                                        ^ (first time only)

Verse
eb|---------------------------------------------------------------------------|
Bb|---------------------------------------------------------------------------|
Gb|--7777777777777777---------------------------------------------------------|
Db|--7777777777777777-5555555555555555-9999999999999999-5555555555555555------|
Ab|--5555555555555555-5555555555555555-9999999999999999-5555555555555555------|
Eb|-------------------3333333333333333-7777777777777777-3333333333333333------|
     **************** **************** **************** ****************

(Guitar 2)
eb|------------------|
Bb|----7~----7~------|
Gb|-------9~---------| ->(played in background) x2
Db|------------------|
Ab|------------------|
Eb|------------------|

eb|-----------------------------------------------------------------------------------|
Bb|-----------------------------------------------------------------------------------|
Gb|--77-7-77-7-77-7-77-7--------------------------------------------------------------|
Db|--77-7-77-7-77-7-77-7-55-5-55-5-55-5-55-5-99-9-99-9-99-9-99-9-55-5-55-5-55-5-55-5--|
Ab|--55-5-55-5-55-5-55-5-55-5-55-5-55-5-55-5-99-9-99-9-99-9-99-9-55-5-55-5-55-5-55-5--|
Eb|----------------------33-3-33-3-33-3-33-3-77-7-77-7-77-7-77-7-33-3-33-3-33-3-33-3--|

Pre-Chorus
eb|----------------------------------------------------------|
Bb|----------------------------------------------------------|
Gb|----------------------------------------------------------|
Db|--2~--4~--5~--7~---22222222-44444444-55555555-7-7-7-7x----|
Ab|--2~--4~--5~--7~---22222222-44444444-55555555-7-7-7-7x----|
Eb|--0~--2~--3~--5~---00000000-22222222-33333333-5-5-5-5x----|
                      ******** ******** ********

Chorus 
eb|-----------------------------------------------------------------------|
Bb|-----------------------------------------------------------------------|
Gb|--7777777777777777-----------------------------------------------------|
Db|--7777777777777777-7777777777777777-9999999999999999-5555555555555555--|   
Ab|--5555555555555555-7777777777777777-9999999999999999-5555555555555555--|
Eb|-------------------5555555555555555-7777777777777777-3333333333333333--|

eb|-----------------------------------------------------------------------|
Bb|-----------------------------------------------------------------------|
Gb|--7777777777777777------------------5555555555555555-------------------|
Db|--7777777777777777-7777777777777777-5555555555555555-5555555555555555--|   
Ab|--5555555555555555-7777777777777777-3333333333333333-5555555555555555--|
Eb|-------------------5555555555555555------------------3333333333333333--|


Intro Riff
eb|------------------------------------------|
Bb|------------------------------------------|
Gb|--------------------99-9-99-9-99-9-99999--|  
Db|--99-99999\55-55555-99-9-99-9-99-9-99999--|
Ab|--99-99999\55-55555-77-7-77-7-77-7-77777--|
Eb|--77-77777\33-33333-----------------------|
                                        
eb|------------------------|
Bb|------------------------|
Gb|--7~~-------------------|
Db|--x-----5~---9~---5~----|
Ab|--5~~---5~---9~---5~----|
Eb|--------3~---7~---3~----|

(Guitar 2)
eb|------------------|
Bb|----7~----7~------|
Gb|-------9~---------| ->(played in background) x2
Db|------------------|
Ab|------------------|
Eb|------------------|

eb|---------------------------------------------------------------------|
Bb|---------------------------------------------------------------------|
Gb|--77-7-77-7-77-7-77-7------------------------------------------------|
Db|--77-7-77-7-77-7-77-7-55-5-55-5-55-5-55-5-99-9-99-9-99-9-99-9--5~~---|
Ab|--55-5-55-5-55-5-55-5-55-5-55-5-55-5-55-5-99-9-99-9-99-9-99-9--5~~---|
Eb|----------------------33-3-33-3-33-3-33-3-77-7-77-7-77-7-77-7--3~~---|


Pre-Chorus
eb|------------------------------------------------------------------|
Bb|------------------------------------------------------------------|
Gb|------------------------------------------------------------------|
Db|--2-222222-4-444444-5-555555-7-777777--2-2-4-4-5-5-7-7-7-7xxxxx---|
Ab|--2-222222-4-444444-5-555555-7-777777--2-2-4-4-5-5-7-7-7-7xxxxx---|
Eb|--0-000000-2-222222-3-333333-5-555555--0-0-2-2-3-3-5-5-5-5xxxxx---|
       ******   ******   ******   ******

Chorus 
eb|-----------------------------------------------------------------------|
Bb|-----------------------------------------------------------------------|
Gb|--7777777777777777-----------------------------------------------------|
Db|--7777777777777777-7777777777777777-9999999999999999-5555555555555555--|   
Ab|--5555555555555555-7777777777777777-9999999999999999-5555555555555555--|
Eb|-------------------5555555555555555-7777777777777777-3333333333333333--|

eb|-----------------------------------------------------------------------|
Bb|-----------------------------------------------------------------------|
Gb|--7777777777777777------------------5555555555555555-------------------|
Db|--7777777777777777-7777777777777777-5555555555555555-5555555555555555--|   
Ab|--5555555555555555-7777777777777777-3333333333333333-5555555555555555--|
Eb|-------------------5555555555555555------------------3333333333333333--|

Bridge
eb|---------------------------|
Bb|---------------------------|
Gb|--7~----------5~-----------|
Db|--7~----7~----5~----5~-----|   
Ab|--5~----7~----3~----5~-----|
Eb|--------5~----------3~-----|

eb|--------------------------------------------------------------------|
Bb|--------------------------------------------------------------------|
Gb|--7-7-7-7-7-7-7-7-----------------5-5-5-5-5-5-5-5-------------------|
Db|--7-7-7-7-7-7-7-7-7-7-7-7-7-7-7-7-5-5-5-5-5-5-5-5-5-5-5-5-5-5-5-5---|   
Ab|--5-5-5-5-5-5-5-5-7-7-7-7-7-7-7-7-3-3-3-3-3-3-3-3-5-5-5-5-5-5-5-5---|
Eb|------------------5-5-5-5-5-5-5-5-----------------3-3-3-3-3-3-3-3---|

eb|-----------------------------------------------------------------------|
Bb|-----------------------------------------------------------------------|
Gb|--7777777777777777------------------5555555555555555-------------------|
Db|--7777777777777777-7777777777777777-5555555555555555-5555555555555555--|   
Ab|--5555555555555555-7777777777777777-3333333333333333-5555555555555555--|
Eb|-------------------5555555555555555------------------3333333333333333--|

Chorus 
eb|-----------------------------------------------------------------------|
Bb|-----------------------------------------------------------------------|
Gb|--7777777777777777-----------------------------------------------------|
Db|--7777777777777777-7777777777777777-9999999999999999-5555555555555555--|   
Ab|--5555555555555555-7777777777777777-9999999999999999-5555555555555555--|
Eb|-------------------5555555555555555-7777777777777777-3333333333333333--|

eb|-----------------------------------------------------------------------|
Bb|-----------------------------------------------------------------------|
Gb|--7777777777777777------------------5555555555555555-------------------|
Db|--7777777777777777-7777777777777777-5555555555555555-5555555555555555--|   
Ab|--5555555555555555-7777777777777777-3333333333333333-5555555555555555--|
Eb|-------------------5555555555555555------------------3333333333333333--|

Outro
eb|----------------------------------------|
Bb|----------------------------------------|
Gb|--------------------99-9-99-9-99-9-9\7--|  x2
Db|--99-99999\55-55555-99-9-99-9-99-9-9\7--|
Ab|--99-99999\55-55555-77-7-77-7-77-7-7\5--|
Eb|--77-77777\33-33333---------------------|


| /  slide up
| \  slide down
| h  hammer-on
| p  pull-off
| ~  vibrato
| +  harmonic
| x  Mute note
===============================================================================
http://www.ultimate-guitar.com/tabs/r/relient_k/im_taking_you_with_me_tab.htm
===============================================================================
--------------------------------
Faking My Own Suicide
--------------------------------

Faking My Own Suicide
by Relient K
Album: Five Score and Seven Years Ago

tune half step down

chords used

  G  G/A#  E  C  D  B  Cm (G) (C) (D)
e x  x     x  x  x  x  x   3   0   0
B x  x     x  x  x  x  4   3   1   3
G 12 12    9  5  7  4  5   0   0   0
D 12 12    9  5  7  4  x   0   2   4
A 10 9     7  3  5  2  3   2   3   5
E x  x     x  x  x  x  x   3   0   0

Intro
G G/A# E E C D B E D C Cm

G  G/A# E                   
       So, I've made up my mind
C        D          E                  G
  I will pretend to leave this world behind
      G/A#   E                     
  And in the end, you'll know I've lied
  C            D
  To get your attention
      B             E  D    C    Cm
  I'm faking my own suicide

      G     G/A#    E
  I'm faking my own suicide
 (C)                (G)
  Because I know you love me
          (C)         (D)
  You just haven't realized

      G     G/A#    E
  I'm faking my own suicide
          C             D
  They'll hold a double funeral
          B                 E
  Because apart of you will die
  D          C    Cm
  Along with me


  I wish you thought that I was dead
  So rather than me you'd be depressed instead
  And before arriving at my grave
  You'd come to the conclusion
  You'd loved me all your days
  But it's too late
  Too late for you to say

  Because I'm faking my own suicide
  Because I know you love me
  You just haven't realized

  Oh, I'm faking my own suicide
  They'll hold a double funeral
  Because apart of you will die
  Along with me

  I'll write you a letter that you'll keep
  Reminding you your love for me is more than six feet deep
  You say aloud that you would have been my wife
  Write about that time is when I come back to life
  And let you know
  I'd let you know all along I was...
  All along I was faking my own suicide
  Because I know you love me
  You just haven't realized

  I was faking my own suicide
  I'll walk in that room and see your eyes opened so wide
  Opened so wide
  Because you know
              B             C              D
  Because you know you will never leave my site
  Until the day that I die for the first time
  And we'll laugh, yeah we'll laugh
  And we will cry
  So overjoyed at the love that's so alive
                (G)
  Our love is so alive

  chords transcribed by Jason Acosta
  chords relative to tuning

======================================================================================
http://www.ultimate-guitar.com/tabs/r/relient_k/faking_my_own_suicide_crd.htm
======================================================================================

-------------------------------------
Crayons Can melt on us for all I care
-------------------------------------

Capo on Your 3rd fret

Please remember when your capo is on your 3rd fret that it is now the new 0.

   G       Em    Am          Cm      G       G
e|-3-------0-----0-----------0-------3-------3--------------|
B|-0-------0-----1-----------4-------0-------0--------------|
G|-0-------0-----2-----------5-------0-------0--------------|
D|-0-------2-----2-----------5-------0-------0--------------|
A|-2-------2-----0-----------3-------2-------2--------------|
E|-3-------0-----------------3-------3-------3--------------|
   I just wasted ten seconds of your life

=============================================================================================    
http://www.ultimate-guitar.com/tabs/r/relient_k/crayons_can_melt_on_us_for_all_i_care_tab.htm
=============================================================================================

------------------------
Bite My Tongue
------------------------

Song: Bite My Tounge
Artist: Relient K
Album: Five Score And Seven Years Ago
Label: Capitol/Gotee Records

Tuning: Drop Db [Db Ab Db Gb Bb eb]
Palm Mute (.)
Vibrato (~)


INTRO (0:00)

  Guitar 1 (palm muted, with delay effect)
|----10--10--10--10--10--10--10--10--9---9---9---9---9---9---9---9---|
|--10--10--10--10--10--10--10--10--10--10--10--10--10--10--10--10----|
|--------------------------------------------------------------------|
|--------------------------------------------------------------------|
|--------------------------------------------------------------------|
|--------------------------------------------------------------------|  
|  ...............................................................
|
|Guitar 2 (distortion)
|--------------------------------------------------------------------|
|--------------------------------------------------------------------|
|--------------------------------------------------------------------|
|--------------------------------------------------------------------|
|--------------------------------------------------------------------|
|--------------------------------------------------------------------|


 Gtr 1
|----10--10--10--10--10--10--10--10--9---9---9---9---12--12--12--12--|
|--10--10--10--10--10--10--10--10--10--10--10--10--10--10--10--10----|
|--------------------------------------------------------------------|
|--------------------------------------------------------------------|
|--------------------------------------------------------------------|
|--------------------------------------------------------------------|
|  ................................................................
|
|Gtr 2
|--------------------------------------------------------------------|
|--------------------------------------------------------------------|
|--------------------------------------------------------------------|
|--5-5-5-5-5-5-5-5-5-5-5-5-5-5-5-5-4-4-4-4-4-4-4-4-7-7-7-7-7-7-7-7---|
|--5-5-5-5-5-5-5-5-5-5-5-5-5-5-5-5-5-5-5-5-5-5-5-5-7-7-7-7-7-7-7-7---|
|--5-5-5-5-5-5-5-5-5-5-5-5-5-5-5-5-4-4-4-4-4-4-4-4-7-7-7-7-7-7-7-7---|


 Guitar 1 
|----10--10--10--10--10--10--10--10--9---9---9---9---9---9---9---9---|
|--10--10--10--10--10--10--10--10--10--10--10--10--10--10--10--10----|
|--------------------------------------------------------------------|
|--------------------------------------------------------------------|
|--------------------------------------------------------------------|
|--------------------------------------------------------------------|  
|  ...............................................................
|
|Guitar 2 (distortion)
|--------------------------------------------------------------------|
|--------------------------------------------------------------------|
|--7-7-7-7-7-7-7-7-7-7-7-7-7-7-7-7-----------------------------------|
|--7-7-7-7-7-7-7-7-7-7-7-7-7-7-7-7-7-7-7-7-7-7-7-7-7-7-7-7-7-7-7-7---|
|--5-5-5-5-5-5-5-5-5-5-5-5-5-5-5-5-7-7-7-7-7-7-7-7-7-7-7-7-7-7-7-7---|
|----------------------------------7-7-7-7-7-7-7-7-7-7-7-7-7-7-7-7---|

 
 Gtr 1
|----10--10--10--10--10--10--10--10--9---9---9---9---12--12--12--12--|
|--10--10--10--10--10--10--10--10--10--10--10--10--10--10--10--10----|
|--------------------------------------------------------------------|
|--------------------------------------------------------------------|
|--------------------------------------------------------------------|
|--------------------------------------------------------------------|
|  ...............................................................
|
|Gtr 2
|--------------------------------------------------------------------|
|--------------------------------------------------------------------|
|--------------------------------------------------------------------|
|--5-5-5-5-5-5-5-5-5-5-5-5-5-5-5-5-4-4-4-4-4-4-4-4-7-7-7-7-7-7-7-7---|
|--5-5-5-5-5-5-5-5-5-5-5-5-5-5-5-5-5-5-5-5-5-5-5-5-7-7-7-7-7-7-7-7---|
|--5-5-5-5-5-5-5-5-5-5-5-5-5-5-5-5-4-4-4-4-4-4-4-4-7-7-7-7-7-7-7-7---|


VERSE 1

Bass only then

 Gtr 1 (0:33)
|--------------------------------------------------------------------|
|--------------------------------------------------------------------|
|-------------------------------------------------------------7-7-7--|
|-------------------------------------------------------------x-x-x--|
|-------------------------------------------------------------5-5-5--|
|--------------------------------------------------------------------|
|
|
|Gtr 2
|--------------------------------------------------------------------|
|--------------------------------------------------------------------|
|--------------------------------------------------------------------|
|--------------------------------------------------------------------|
|--------------------------------------------------------------------|
|--------------------------------------------------------------------|

 
 Gtr 1 (x2) staccato
|--------------------------------------------------------------------|
|--------------------------------------------------------------------|
|--7---7---7---7---6---6---6---6---9---9---9---9---6---6---6---6-----|
|--7---7---7---7---7---7---7---7---7---7---7---7---7---7---7---7-----|
|--5---5---5---5---5---5---5---5---5---5---5---5---5---5---5---5-----|
|--------------------------------------------------------------------|
|
|
|Gtr 2
|--------------------------------------------------------------------|
|--------------------------------------------------------------------|
|--------------------------------------------------------------------|
|--------------------------------------------------------------------|
|--------------------------------------------------------------------|
|--------------------------------------------------------------------|


PRE-CHORUS

 Gtr 1 (0:45)
|--------------------------------------------------------------------|
|--------------------------------------------------------------------|
|--------------------------------------------------------------------|
|--5-5-5-5-5-5-5-5-7-7-7-7-7-7-7-7-9-9-9-9-9-9-9-9-9-9-9-9-9-9-9-9---|
|--5-5-5-5-5-5-5-5-7-7-7-7-7-7-7-7-9-9-9-9-9-9-9-9-9-9-9-9-9-9-9-9---|
|--5-5-5-5-5-5-5-5-7-7-7-7-7-7-7-7-9-9-9-9-9-9-9-9-9-9-9-9-9-9-9-9---|
|  . . . . . . . . . . . . . . . . . . . . . . . . . . . . . . . .
|
|Gtr 2
|--------------------------------------------------------------------|
|--------------------------------------------------------------------|
|--------------------------------------------------------------------|
|--------------------------------------------------------------------|
|--------------------------------------------------------------------|
|--------------------------------------------------------------------|


Gtr 1
|--------------------------------------------------------------------|
|--------------------------------------------------------------------|
|--------------------------------------------------------------------|
|--5-5-5-5-5-5-5-5-7-7-7-7-7-7-7-7-9-9-9-9-9-9-9-9-9-9-9-9-9-9-9-9---|
|--5-5-5-5-5-5-5-5-7-7-7-7-7-7-7-7-9-9-9-9-9-9-9-9-9-9-9-9-9-9-9-9---|
|--5-5-5-5-5-5-5-5-7-7-7-7-7-7-7-7-9-9-9-9-9-9-9-9-9-9-9-9-9-9-9-9---|
|  . . . . . . . . . . . . . . . . . . . . . . . . . slowly release
|
|Gtr 2
|--------------------------------------------------------------------|
|--------------------------------------------------------------------|
|--------------------------------------------------------------------|
|--------------------------------------------------------------------|
|--------------------------------------------------------------------|
|--------------------------------------------------------------------|


 Gtr 1 (0:56) play 2 times
|--------------------------------------------------------------------|
|--------------------------------------------------------------------|
|--------------------------------------------------------------------|
|--5-5-5-5-5-5-5-5-7-7-7-7-7-7-7-7-9-9-9-9-9-9-9-9-9-9-9-9-9-9-9-9---|
|--5-5-5-5-5-5-5-5-7-7-7-7-7-7-7-7-9-9-9-9-9-9-9-9-9-9-9-9-9-9-9-9---|
|--5-5-5-5-5-5-5-5-7-7-7-7-7-7-7-7-9-9-9-9-9-9-9-9-9-9-9-9-9-9-9-9---|
| 
|
|Gtr 2
|--------------------------------------------------------------------|
|--------------------------------------------------------------------|
|--------------------------------------------------------------------|
|--5-5-5-5-5-5-5-5-7-7-7-7-7-7-7-7-9-9-9-9-9-9-9-9-9-9-9-9-9-9-9-9---|
|--5-5-5-5-5-5-5-5-7-7-7-7-7-7-7-7-9-9-9-9-9-9-9-9-9-9-9-9-9-9-9-9---|
|--5-5-5-5-5-5-5-5-7-7-7-7-7-7-7-7-9-9-9-9-9-9-9-9-9-9-9-9-9-9-9-9---|
 

CHORUS (1:06)

Guitar 1 
|----10--10--10--10--10--10--10--10--9---9---9---9---9---9---9---9---|
|--10--10--10--10--10--10--10--10--10--10--10--10--10--10--10--10----|
|--------------------------------------------------------------------|
|--------------------------------------------------------------------|
|--------------------------------------------------------------------|
|--------------------------------------------------------------------|  
|  ...............................................................
|
|Guitar 2 (distortion)
|--------------------------------------------------------------------|
|--------------------------------------------------------------------|
|--7-7-7-7-7-7-7-7-7-7-7-7-7-7-7-7-----------------------------------|
|--7-7-7-7-7-7-7-7-7-7-7-7-7-7-7-7-7-7-7-7-7-7-7-7-7-7-7-7-7-7-7-7---|
|--5-5-5-5-5-5-5-5-5-5-5-5-5-5-5-5-7-7-7-7-7-7-7-7-7-7-7-7-7-7-7-7---|
|----------------------------------7-7-7-7-7-7-7-7-7-7-7-7-7-7-7-7---|

 
 Gtr 1
|----10--10--10--10--10--10--10--10--9---9---9---9---12--12--12--12--|
|--10--10--10--10--10--10--10--10--10--10--10--10--10--10--10--10----|
|--------------------------------------------------------------------|
|--------------------------------------------------------------------|
|--------------------------------------------------------------------|
|--------------------------------------------------------------------|
|  ...............................................................
|
|Gtr 2
|--------------------------------------------------------------------|
|--------------------------------------------------------------------|
|--------------------------------------------------------------------|
|--5-5-5-5-5-5-5-5-5-5-5-5-5-5-5-5-4-4-4-4-4-4-4-4-7-7-7-7-7-7-7-7---|
|--5-5-5-5-5-5-5-5-5-5-5-5-5-5-5-5-5-5-5-5-5-5-5-5-7-7-7-7-7-7-7-7---|
|--5-5-5-5-5-5-5-5-5-5-5-5-5-5-5-5-4-4-4-4-4-4-4-4-7-7-7-7-7-7-7-7---|


 Gtr 1 (delay effect)
|--10~~---10-10-10-10------------------------------------------------|
|--10~~---10-10-10-10------------------------------------------------|
|--------------------------------------------------------------------|
|--------------------------------------------------------------------|
|--------------------------------------------------------------------|
|--------------------------------------------------------------------|
|
|
|Gtr 2
|--------------------------------------------------------------------|
|--------------------------------------------------------------------|
|--7~~---------------------------------------------------------------|
|--7~~---------------------------------------------------------------|
|--5~~---------------------------------------------------------------|
|--------------------------------------------------------------------|


VERSE 2 (1:21) Play 2 times

 Gtr 1
|--------------------------------------------------------------------|
|--------------------------------------------------------------------|
|--14--14--14--14--14--14--14--14---9---9---9---9--11--11--11--11----|
|--12--12--12--12--12--12--12--12--12--12--12--12--12--12--12--12----|
|--------------------------------------------------------------------|
|--------------------------------------------------------------------|
|
|
|Gtr 2
|--------------------------------------------------------------------|
|--------------------------------------------------------------------|
|--7-7-7-7-7-7-7-7-7-7-7-7-7-7-7-7-----------------------------------|
|--7-7-7-7-7-7-7-7-7-7-7-7-7-7-7-7-4-4-4-4-4-4-4-4-5-5-5-5-5-5-5-5---|
|--5-5-5-5-5-5-5-5-5-5-5-5-5-5-5-5-5-5-5-5-5-5-5-5-5-5-5-5-5-5-5-5---|
|----------------------------------4-4-4-4-4-4-4-4-5-5-5-5-5-5-5-5---|
   . . . . . . . . . . . . . . . . . . . . . . . . . . . . . . . . 


PRE-CHORUS 2 (1:32)
 
 Gtr 1
|--------------------------------------------------------------------|
|--------------------------------------------------------------------|
|--------------------------------------------------------------------|
|--5-5-5-5-5-5-5-5-7-7-7-7-7-7-7-7-9-9-9-9-9-9-9-9-9-9-9-9-9-9-9-9---|
|--5-5-5-5-5-5-5-5-7-7-7-7-7-7-7-7-9-9-9-9-9-9-9-9-9-9-9-9-9-9-9-9---|
|--5-5-5-5-5-5-5-5-7-7-7-7-7-7-7-7-9-9-9-9-9-9-9-9-9-9-9-9-9-9-9-9---|
| 
|
|Gtr 2
|--------------------------------------------------------------------|
|--------------------------------------------------------------------|
|--------------------------------------------------------------------|
|--5-5-5-5-5-5-5-5-7-7-7-7-7-7-7-7-9-9-9-9-9-9-9-9-9-9-9-9-9-9-9-9---|
|--5-5-5-5-5-5-5-5-7-7-7-7-7-7-7-7-9-9-9-9-9-9-9-9-9-9-9-9-9-9-9-9---|
|--5-5-5-5-5-5-5-5-7-7-7-7-7-7-7-7-9-9-9-9-9-9-9-9-9-9-9-9-9-9-9-9---|
 

Gtr 1
|--------------------------------------------------------------------|
|--------------------------------------------------------------------|
|--------------------------------------------------------------------|
|--5-5-5-5-5-5-5-5-7-7-7-7-7-7-7-7-----------------------------------|
|--5-5-5-5-5-5-5-5-7-7-7-7-7-7-7-7-----------------------------------|
|--5-5-5-5-5-5-5-5-7-7-7-7-7-7-7-7-----------------------------------|
| 
|
|Gtr 2
|--------------------------------------------------------------------|
|--------------------------------------------------------------------|
|--------------------------------------------------------------------|
|--5-5-5-5-5-5-5-5-7-7-7-7-7-7-7-7-----------------------------------|
|--5-5-5-5-5-5-5-5-7-7-7-7-7-7-7-7-----------------------------------|
|--5-5-5-5-5-5-5-5-7-7-7-7-7-7-7-7-----------------------------------|


CHORUS x2

BRIDGE (2:04)

 Gtr 1 Play 2 times
|--------------------------------------------------------------------|
|--------------------------------------------------------------------|
|--------------------------------------------------------------------|
|--------------------------------------------------------------------|
|--------------------------------------------------------------------|
|--------------------------------------------------------------------|
|
|
|Gtr 2
|--------------------------------------------------------------------|
|--------------------------------------------------------------------|
|----------------------------------7-7-7-7-7-7-7-7-------------------|
|--9-9-9-9-9-9-9-9-5-5-5-5-5-5-5-5-7-7-7-7-7-7-7-7-4-4-4-4-4-4-4-4---|
|--9-9-9-9-9-9-9-9-5-5-5-5-5-5-5-5-5-5-5-5-5-5-5-5-5-5-5-5-5-5-5-5---|
|--9-9-9-9-9-9-9-9-5-5-5-5-5-5-5-5-----------------4-4-4-4-4-4-4-4---|
|  . . . . . . . . . . . . . . . . . . . . . . . . . . . . . . . .

Then

 Gtr 1
|--------------------------------------------------------------------|
|--------------------------------------------------------------------|
|--------------------------------------------------------------------|
|--------------------------------------------------------------------|
|--------------------------------------------------------------------|
|--------------------------------------------------------------------|
|
|
|Gtr 2
|--------------------------------------------------------------------|
|--------------------------------------------------------------------|
|--------------------------------------------------------------------|
|--5-5-5-5-5-5-5-5-7-7-7-7-7-7-7-7-----------------------------------|
|--5-5-5-5-5-5-5-5-7-7-7-7-7-7-7-7-----------------------------------|
|--5-5-5-5-5-5-5-5-7-7-7-7-7-7-7-7-----------------------------------|
|  . . . . . . . . . . . . . . . .


FINAL CHORUS
 Gtr 1
|--------------------------------------------------------------------|
|--------------------------------------------------------------------|
|--------------------------------------------------------------------|
|--------------------------------------------------------------------|
|--------------------------------------------------------------------|
|--------------------------------------------------------------------|
|
|
|Gtr 2
|--------------------------------------------------------------------|
|--------------------------------------------------------------------|
|--------------------------------------------------------------------|
|--------------------------------------------------------------------|
|--5-5-5-5-5-5-5-5-5-5-5-5-5-5-5-5-----------------------------------|
|----------------------------------7-7-7-7-7-7-7-7-7-7-7-7-7-7-7-7---|
   . . . . . . . . . . . . . . . . . . . . . . . . . . . . . . . . 


 Gtr 1
|--------------------------------------------------------------------|
|--------------------------------------------------------------------|
|--------------------------------------------------------------------|
|--5-5-5-5-5-5-5-5-5-5-5-5-5-5-5-5-4-4-4-4-4-4-4-4-7-7-7-7-7-7-7-7---|
|--5-5-5-5-5-5-5-5-5-5-5-5-5-5-5-5-5-5-5-5-5-5-5-5-7-7-7-7-7-7-7-7---|
|--5-5-5-5-5-5-5-5-5-5-5-5-5-5-5-5-4-4-4-4-4-4-4-4-7-7-7-7-7-7-7-7---|
|
|
|Gtr 2
|--------------------------------------------------------------------|
|--------------------------------------------------------------------|
|--------------------------------------------------------------------|
|--5-5-5-5-5-5-5-5-5-5-5-5-5-5-5-5-4-4-4-4-4-4-4-4-7-7-7-7-7-7-7-7---|
|--5-5-5-5-5-5-5-5-5-5-5-5-5-5-5-5-5-5-5-5-5-5-5-5-7-7-7-7-7-7-7-7---|
|--5-5-5-5-5-5-5-5-5-5-5-5-5-5-5-5-4-4-4-4-4-4-4-4-7-7-7-7-7-7-7-7---|


 OUTRO (play 2 times)
 Guitar 1 
|----10--10--10--10--10--10--10--10--9---9---9---9---9---9---9---9---|
|--10--10--10--10--10--10--10--10--10--10--10--10--10--10--10--10----|
|--------------------------------------------------------------------|
|--------------------------------------------------------------------|
|--------------------------------------------------------------------|
|--------------------------------------------------------------------|  
|  ...............................................................
|
|Guitar 2 (distortion)
|--------------------------------------------------------------------|
|--------------------------------------------------------------------|
|--7-7-7-7-7-7-7-7-7-7-7-7-7-7-7-7-----------------------------------|
|--7-7-7-7-7-7-7-7-7-7-7-7-7-7-7-7-7-7-7-7-7-7-7-7-7-7-7-7-7-7-7-7---|
|--5-5-5-5-5-5-5-5-5-5-5-5-5-5-5-5-7-7-7-7-7-7-7-7-7-7-7-7-7-7-7-7---|
|----------------------------------7-7-7-7-7-7-7-7-7-7-7-7-7-7-7-7---|

 
 Gtr 1
|----10--10--10--10--10--10--10--10--9---9---9---9---12--12--12--12--|
|--10--10--10--10--10--10--10--10--10--10--10--10--10--10--10--10----|
|--------------------------------------------------------------------|
|--------------------------------------------------------------------|
|--------------------------------------------------------------------|
|--------------------------------------------------------------------|
|  ...............................................................
|
|Gtr 2
|--------------------------------------------------------------------|
|--------------------------------------------------------------------|
|--------------------------------------------------------------------|
|--5-5-5-5-5-5-5-5-5-5-5-5-5-5-5-5-4-4-4-4-4-4-4-4-7-7-7-7-7-7-7-7---|
|--5-5-5-5-5-5-5-5-5-5-5-5-5-5-5-5-5-5-5-5-5-5-5-5-7-7-7-7-7-7-7-7---|
|--5-5-5-5-5-5-5-5-5-5-5-5-5-5-5-5-4-4-4-4-4-4-4-4-7-7-7-7-7-7-7-7---|

END ON
 Gtr 1
|--10~~--------------------------------------------------------------|
|--10~~--------------------------------------------------------------|
|--------------------------------------------------------------------|
|--------------------------------------------------------------------|
|--------------------------------------------------------------------|
|--------------------------------------------------------------------|
|
|
|Gtr 2
|--------------------------------------------------------------------|
|--------------------------------------------------------------------|
|--7~~---------------------------------------------------------------|
|--7~~---------------------------------------------------------------|
|--5~~---------------------------------------------------------------|
|--------------------------------------------------------------------|




| /  slide up
| \  slide down
| h  hammer-on
| p  pull-off
| ~  vibrato
| +  harmonic
| x  Mute note
===============================================================================
http://www.ultimate-guitar.com/tabs/r/relient_k/bite_my_tounge_tab.htm?voted
===============================================================================


------------
UP AND UP
------------

Artist: Relient K
ALbum: Five Score And Seven Years Ago
Year: 2007
E-M@il: goodlife_7_7@hotmail.com

Comentarios, Correcciones a mi e-mail.............
la guitarra 1 tiene un efecto raro....


Guitarra 1     0:00
----------------------------------|
----------------------------------|
---6~------8~------11~-----6~-----|
---6~------8~------11~-----6~-----|
---4~------6~------9~~-----4~-----|
----------------------------------| x1

Guitarra 2  Solo          0:00
-----------------------------------------------------------|
-------9~------9--9--7---------9--9--7----------7----------|
---6-------6------------6~--6-----------6~-----------------|
---------------------------------------------6-----6~------|
-----------------------------------------------------------|
-----------------------------------------------------------|x1

Guitarra 2             0:13
E-----------------------------------|
------------------------------------|
---6-------8-------11------6--------|
---6-------8-------11------6--------|
---4-------6-------9-------4--------|
------------------------------------|x1
PM.................................


Verse
Guitarra 1            0:26
----------------------------------|
----------------------------------|
---6~------8~------11~-----6~-----|
---6~------8~------11~-----6~-----|
---4~------6~------9~~-----4~-----|
----------------------------------|x1

Guitarra 2              0:39
----------------------------------|
----------------------------------|
---6-------8-------11------6------|
---6-------8-------11------6------|
---4-------6-------9-------4------|
----------------------------------|
PM.................................

Pre-coro
Guitarra 2           0:52
--------------------------|
--------------------------|
----------------6---------|
---4--6--8---4--6--6------| x2
---4--6--8---4--4--6------|
---2--4--6---2-----4------|
PM.........................


Coro
2 Guitarras                1:18
----------------------------------|
----------------------------------|
-----------------6--5-------------|
--4--6--8--------6--5--8--6--4----|
--4--6--8--------4--3--8--6--4----|
--2--4--6--------------6--4--2----|
            x3  PM.............

Guitar 2              1:45
----------------------------------|
----------------------------------|
---6-------8-------11------6------|
---6-------8-------11------6------|
---4-------6-------9-------4------|
----------------------------------|
PM.................................x2


Pre-coro
Guitarra 2           2:23
--------------------------|
--------------------------|
----------------6---------|
---4--6--8---4--6--6------| x1
---4--6--8---4--4--6------|
---2--4--6---2-----4------|
PM.........................

Coro
2 Guitarras                2:38
----------------------------------|
----------------------------------|
-----------------6--5-------------|
--4--6--8--------6--5--8--6--4----|
--4--6--8--------4--3--8--6--4----|
--2--4--6--------------6--4--2----|x1
            x3  PM.............

Puente
GUitarra 2         3:04
-------------------|
-------------------|
--------6----------|
--8--4--6--6-------|
--8--4--4--6-------|
--6--2-----4-------|x1

Coro
2 Guitarras                3:18
----------------------------------|
----------------------------------|
-----------------6--5-------------|
--4--6--8--------6--5--8--6--4----|
--4--6--8--------4--3--8--6--4----|
--2--4--6--------------6--4--2----|x1
            x3  PM.............x2


Guitarra 2  Solo
--------------------------------|
--7--6--------7--6--------------|
--------6-----------------------|
-----------6--------------------|
--------------------------------|
--------------------------------|

=================================================================
http://www.ultimate-guitar.com/tabs/r/relient_k/up_and_up_tab.htm
=================================================================

-------------
DEATHBED
-------------

wow, this song is amazing. Please rate...

Song: Deathbed
Artist: Relient k
Album: Five Score And Seven Years Ago

                         F
I can smell the death on the sheets
  F
Covering me
F                    F/G            C
I can't believe this is the end

        C             F 
But this is my deathbed
   G          Am
I lie here alone
      C                     F
If I close my eyes tonight
    G               C
I know I'll be home

        C                                  G
The year was nineteen forty one
          Bb            
I was eight years old and
                     F
Far, far too young
      C            
To know that the stories
       G      
Of battles and glory
          Bb
Was a tale a kind mother
          F
Made up for her son

You see
C                                G
Dad was a traveling preacher
Bb                                        F
Teaching the words of the Teacher
       C               
My mother had sworn he
         G
Went off to the war
        Bb      
And died there with honor
           F
Somewhere on a beach there
           Am                       Ab
But he left once to never return
            C/G                                 D/F#
Which taught me that I should unlearn
         F                         C    
Whatever I thought a father should be
       Eb 
I abandoned that thought 
              D/F#
Like he abandoned me

      D                          A/C#
By forty seven I was fourteen
          C                                            G
I'd acquired a taste for liquor and nicotine
     Bb                         D/A
I smoked until I threw up
                          A
Yet I still lit 'em up
        Ab              G
For thirty more years
              D
Like a machine

      F                                C
So right there you have it
         F                     C
That one filthy habit
            F/D               C        G
Is what got me where I am today

                          F          
I can smell the death on the sheets

Covering me
                      F/G            C         G
I can't believe this is the end
                           F
I can hear those sad memories

Still haunting me

So many things
F/G      C        G
I'd do again

       C                F
But this is my deathbed
  G           Am
I lie here alone
        C                    F
If I close my eyes tonight
     G                C
I know I'll be home

           C                               G
I got married on my twenty first 
 Bb                                  F
Eight months before my wife would give birth
       C                              G
It's easier to be sure you love someone
                 Bb                                 F
When her father inquires with the barrel of a gun
        Am                          E/Ab
The union was far from harmonious
              C/G                                      D/F#
No two people could have been more alone than us
        F                                           C
The years would go by and she'd love someone else
             Eb                          D/F#
And I realized I hadn't been loved yet myself

           D                               A
From there it's your typical spiel
            C          
Yeah if life was a highway 
          G
I was drunk at the wheel
          Bb
I was seeing the loose ends
D/A
All fall apart
             A                Ab              G
Yeah I swear I was destined to fail
        F#                D
And fail from the start

    F                                    C
I bowled about six times a week
       F                                        C
The bottle of Beam kept the memories from me
          F                              C
The marriage had taken a seven-ten split
        F/D                  C                  G
And along with my pride the ex-wife took the kids

                          F
I can smell the death on the sheets

Covering me
                      F/G           C        G
I can't believe this is the end
                           F    
I can hear those sad memories

Still haunting me

So many things
F/G     C         G
I'd do again

        C               F
But this is my deathbed
  G           Am
I lie here alone
       C                     F
If I close my eyes tonight
     G               C
I know I'll be home

          C
I was so scared of Jesus
     G/D
But He sought me out
              Bb  
Like the cancer in my lungs
            F
That's killing me now
              C
And I've given up hope
            G/D
On the days I have left
          Bb
But I cling to the hope
          F
Of my life in the next
          Am 
Then Jesus showed up 
         E/Ab
Said, "Before we go up
   C/G                               D/F#
I thought that we might reminisce
               F
See one night in your life
                   C
When you turned out the light
           Eb                                         D
You asked for and prayed for my forgiveness"

                D
You cried wolf
       Bm                               A
The tears they soaked your fur
        G                                           Em
The blood dripped from your fangs
        D                           A
You said, "What have I done?"
                            Em
You loved that Lamb
          D                  Bm
With every sinful bone
           A
And there you wept alone
G        Em                     A
Your heart was so contrite

                    Em                       D                          G
You said, "Jesus, please forgive me of my crimes
Em                    D                           G
Sanctify this withered heart of mine
Em                    D                        G
Stay with me until my life is through
       Em                               D                                G
And on that day please take me home with you"

                              G
I can smell the death on the sheets

Covering me
                                             D           A
I can't believe this is the end
                              G                       
I can hear You whisper to me,     

"It's time to leave
                             G/Bb     D           A
You'll never be lonely again"

        D                      G
But this was my deathbed
    A                Bm
I died there alone
                 D                          G
When I closed my eyes tonight
            A                G/D    D
You carried me home


During the instrumental, its all :   G          D


[Jon Foreman of Switchfoot sings]
D            F#/D
I am the Way
            Bm
Follow Me
                         G             A
And take My hand
       D             F#/D
And I am the Truth
       Bm                     A             G
Embrace Me and you'll understand
       D             F#/D
And I am the Light
               C                        G
And for Me you'll live again
      G A     Bm
For I am Love
G A    Bm
I am Love
D/F#   G     G  A     D
I,                   I am Love

That's it...please rate!!

===========================================================================
http://www.ultimate-guitar.com/tabs/r/relient_k/deathbed_ver2_crd.htm
===========================================================================


THANKS FOR EVERYONE WHO TOOK THIS LONG TO READ THIS SUPER-LONG TAB. 
5 SCORE AND 7 YEARS AGO ROCKS, SO IT'S A MUST-BUY FOR A TRUE RELIENT K FAN!!!

collected by: c-rob6422 on ultimate-guitar.com
comments
We did not receive enough feedback on this tab! Please rate:
1 2 3 4 5
1 comment total.
+2 reply
guitar-pro_92 wrote on November 16 2007, 04:37 pm

I posted the full version of I need you if you'd like to put it on there

I want to post or [tab]
guest
You may want to rate the tab now too:
select rating
Please do not post tabs as comments. Select "correction" instead!