Oops, an error
Loading. Please wait.

For The Moments I Feel Faint Tab

19,219 views 30 this week
5 commentsread comments
1 2 3 4 5
excellent!
x 11
Autoscroll
+/-
esc
set tempo
stop
Contributor
Difficulty
intermediate
WARNING: You are trying to view
                                    content from Ultimate-Guitar.com
                                    in an unauthorized application,
                                    which is prohibited.

                                    Please use an official Ultimate
                                    Guitar Tabs application for iPhone,
                                    iPad or Android to access legitimate
                                    chords, guitar, bass, and drum tabs
                                    from Ultimate-Guitar.com database.

                                    Type "ultimate guitar tabs" in Apple
                                    App Store's or Android Market's
                                    search to find the application.
-------------------------------------------------------------------------------
                   For The Moments I Feel Faint - Relient K
-------------------------------------------------------------------------------
Tabbed by: Sean Hummer
Email: allstar21369@hotmail.com

The other tabs for this song have the correct chords but none of them had
the strumming and the strumming with the lead (which, as I'm surprised no one
noticed/posted, can all be played with one guitar fairly easily.)

Let me know what you think and if you have any questions on the strumming,
etc. feel free to e-mail me as I've made a video to help.


Tuning: Standard

E      -  022100
A2     -  002200
C#m7   -  x46600
Bmsus  -  x24400
C2     -  x35500
F#msus -  244300
Asus2  -  577600



Intro/Post-Chorus-
(So this is that melodic part everyone likes so much. It's surprisingly
easy to play but not so easy to tab... Just remember to play it fluidly and
it should sound correct.

^ = Down strum / v = Up strum)
The down strums in the melody are lightly played (and if you chose not to
play them at all it sounds right, though by playing them it adds fullness)
  ^  ^  ^ v ^  v ^  v ^  v ^  v ^    ^  ^  ^ v ^  v ^  v ^  v ^ v ^
e|---0--0-0-0--0-0--0-0--0-0--0-0-------0--0-0-0--0-0--0-0--0-0-0-0----------|
B|---0--0-0-0--0-0--0-0--0-0--0-0-------0--0-0-0--0-0--0-0--0-0-0-0----------|
G|---1--1-1-1--2-2--1-1--1-1--1-1----6x-6--6-6-6--4-4--4-4--4-4-4-4----------|
D|2x-2--2-2-2--2-2--2-2--4-4--2-2----6x-6--6-6-6--1-1--2-2--4-4-4-4------x2--|
A|2x-2--2-2-2--0-0--0-0--0-0--0-0----4x-4--4-4-4--2-2--2-2--2-2-2-2----------|
E|0x-0--0-0-0----------------------------------------------------------------|


*Alternative*
Without the faint down strums that add filler it would look more like this...
  ^  ^  ^ v ^  v  v  v  v    ^  ^  ^ v ^  v  v  v  v ^ v
e|---0--0-0-0--0--0--0--0-------0--0-0-0--0--0--0--0-0-0---------------------|
B|---0--0-0-0--0--0--0--0-------0--0-0-0--0--0--0--0-0-0---------------------|
G|---1--1-1-1--2--1--1--1----6x-6--6-6-6--4--4--4--4-4-4---------------------|
D|2x-2--2-2-2--2--2--4--2----6x-6--6-6-6--1--2--4--4-4-4-----------------x2--|
A|2x-2--2-2-2--0--0--0--0----4x-4--4-4-4--2--2--2--2-2-2---------------------|
E|0x-0--0-0-0----------------------------------------------------------------|

If you have trouble seeing the rhythm/strumming pattern just let me know.






Verse/Chorus-
The chords and the progression are the same but the verse/chorus does not
have the melody...
  ^  ^ v  v ^ v     ^  ^ v  v ^ v     ^  ^ v  v ^ v     ^  ^ v  v ^ v
e|---0-0--0-0-0-----0--0-0--0-0-0--------0-0--0-0-0--------0-0--0-0-0--------|
B|---0-0--0-0-0-----0--0-0--0-0-0-----0--0-0--0-0-0-----0--0-0--0-0-0--------|
G|1--1-1--1-1-1-----2--2-2--2-2-2-----6--6-6--6-6-6-----4--4-4--4-4-4--------|
D|2--2-2--2-2-2-----2--2-2--2-2-2-----6--6-6--6-6-6-----4--4-4--4-4-4----x4--|
A|2--2-2--2-2-2-----0--0-0--0-0-0-----4--4-4--4-4-4-----2--2-2--2-2-2--------|
E|0--0-0--0-0-0--------------------------------------------------------------|






Bridge-
  ^  ^     ^ ^      ^  ^ v  v ^ v     ^  ^ v  v ^ v
e|0-0x-----0-0x-----0--0-0--0-0-0-----0--0-0--0-0-0--------------------------|
B|0-0x-----0-0x-----0--0-0--0-0-0-----0--0-0--0-0-0--------------------------|
G|1-1x-----2-2x-----6--6-6--6-6-6-----5--5-5--5-5-5---------x2---------------|
D|2-2x-----2-2x-----6--6-6--6-6-6-----5--5-5--5-5-5--------------------------|
A|2-2x-----0-0x-----4--4-4--4-4-4-----3--3-3--3-3-3--------------------------|
E|0-0x-----------------------------------------------------------------------|

  ^ ^  ^ v ^ v  v ^  ^ v ^ v     ^ ^  ^ v ^ v  v ^  ^ v ^ v
e|0-0--0-0-0-0--0-0--0-0-0-0-----0-0--0-0-0-0--0-0--0-0-0-0------------------|
B|0-0--0-0-0-0--0-0--0-0-0-0-----0-0--0-0-0-0--0-0--0-0-0-0------------------|
G|3-3--3-3-3-3--3-3--3-3-3-3-----6-6--6-6-6-6--6-6--6-6-6-6------------------|
D|4-4--4-4-4-4--4-4--4-4-4-4-----7-7--7-7-7-7--7-7--7-7-7-7------------------|
A|4-4--4-4-4-4--4-4--4-4-4-4-----7-7--7-7-7-7--7-7--7-7-7-7------------------|
E|2-2--2-2-2-2--2-2--2-2-2-2-----5-5--5-5-5-5--5-5--5-5-5-5------------------|





Verse 1:

E            A2     C#m7        Bmsus
 Am I at the point     of no improvement?
E            A2      C#m7        Bmsus
 What of the death I still dwell in?
E          A2          C#m7    Bmsus
 I try to excel, but I feel no movement.
E         A2           C#m7         Bmsus
 Can I be free of this unreleasable sin?



Chorus:

E      A2    C#m7       Bmsus
 Never underestimate my Jesus
E                  A2
 You're telling me there's no hope
    C#m7               Bmsus
I'm telling you you're wrong
E      A2    C#m7       Bmsus
 Never underestimate my Jesus
E                A2   
 When the world around you crumbles
C#m7         Bmsus
 He will be strong, he will be strong



Verse 2:

E              A2     C#m7             Bmsus
 I throw up my hands    Oh the impossibilities
E               A2              C#m7      Bmsus
 Frustrated and tired, where do I go from here?
E                  A2                 C#m7         Bmsus
 Now I'm searching for the confidence I've lost so willingly
E                 A2       C#m7              Bmsus
 Overcoming these obstacles is overcoming my fear



Bridge:

E                   A2
  I think I can't     I think I can't
C#m7                C2
  But I think you can I think you can
E                   A2
  I think I can't     I think I can't
C#m7                C2
  But I think you can I think you can
F#msus                 Asus2                       E
  Gather my insufficiencies and place them in your hands
A2                   C#m7   Bmsus
  Place them in your hands, place them in your hands



| ^  strum down
| v  strum up
| h  hammer-on
| p  pull-off
| ~  vibrato
| \  slide down
| /  slide up
| +  harmonic
| x  Mute note
===============================================================================
5 comments total. Showing first comments.
0 reply
allstar21369 wrote on June 19 2009, 02:34 am

Video of me playing it...
http://www.youtube.com/watch?v=2-1Hv9Cy18s

0 reply
SK8nBASS wrote on March 5 2011, 09:06 pm

very good job man
thanks

0 reply
Jigglez? wrote on May 5 2011, 03:05 pm

All of it sounds incredible except is it missing something at the end of the bridge? I could figure it out but I'm lazy haha

I want to post or [tab]
guest
You may want to rate the tab now too:
select rating
Please do not post tabs as comments. Select "correction" instead!