Oops, an error
Loading. Please wait.

Mmhmm Tab

ver1
ver1

Album

More versions @911Tabs.com
23,239 views 12 this week
20 commentsread comments
1 2 3 4 5
excellent!
x 38
Autoscroll
+/-
esc
set tempo
stop
Contributor
Hey! There's an official Ultimate Guitar app which is ideal
for learning songs when you're away from computer. Get the app
WARNING: You are trying to view
                                    content from Ultimate-Guitar.com
                                    in an unauthorized application,
                                    which is prohibited.

                                    Please use an official Ultimate
                                    Guitar Tabs application for iPhone,
                                    iPad or Android to access legitimate
                                    chords, guitar, bass, and drum tabs
                                    from Ultimate-Guitar.com database.

                                    Type "ultimate guitar tabs" in Apple
                                    App Store's or Android Market's
                                    search to find the application.
----------------------------------------------------------------------------
			     Mmhmm (album)- Relient K
----------------------------------------------------------------------------

Compiled by: Daniel T or cgplaya

I didn't tab any of these songs put I compiled them from several sites for
people to play because this is a great album from Relient K that everyone
should learn to play. Most of these should be pretty much perfect and I tried
to get the best ones on the Internet. By the way, the tabbers and URL are
included with each tab. You should check on the original sites also to see if
the original tabbers made any corrections or if others made corrections.
Please rate this.

Song: MmHmm (Track 0)
Band: Relient K
Album: MmHmm
Tabbed by: Edi K. (email me at diami_11@yahoo.com)

Tuning: Standard (E-A-D-G-B-E)

F C F C G

F C F C G  C

Chords: F-133211
	C-x32010
	G-320033

For those of you who were wondering what track this was,
it's the hidden track at the beginning of the cd before
The One I'm Waiting For, also known as track zero.

*This track is also the ending to My Girls Ex-Boyfriend.

Enjoy,

"black guitarist"

How to find "track 0"
When it gets to track 1, rewind about 17 seconds before #1 but you have to wait until track 1 starts.

URL: http://www.christianguitar.org/csong/15106

Song: The One I'm Waiting For (Track 1)
Artist: Relient K
Album: mmHmm
Tabbed by: Deborah Chan
Email: skemo_the_fish@hotmail.com

Tuning: *DOWN a half-step*

   Intro (lead guitar)
eb|------------------------------------------------------------|
Bb|------------------------------------------------------------|
Gb|-14-------14-------14----(x2)-11-------11-------11----(x2)--|
Db|----12-12----12-12----12---------12-12----12-12----12-------|
Ab|-----*--*-----*--*-----*----------*--*-----*--*-----*-------|
Eb|------------------------------------------------------------|

eb|-------------------------------------------------------------|
Bb|-------------------------------------------------------------|
Gb|-12-------12-------12----(x2)-9-------9-------9--------------|
Db|----12-12----12-12----12--------12-12---12-12-----7--7--7-7--|
Ab|-----*--*-----*--*-----*---------*--*----*--*-----7--7--7-7--|
Eb|--------------------------------------------------5--5--5-5--|

eb|------------------------------------------------------------|
Bb|------------------------------------------------------------|
Gb|-14-------14-------14----(x4)-11-------11-------11----(x2)--|
Db|----12-12----12-12----12---------12-12----12-12----12-------|
Ab|-----*--*-----*--*-----*----------*--*-----*--*-----*-------|
Eb|------------------------------------------------------------|

eb|------------------------------|
Bb|------------------------------|
Gb|-9-------9-------9------------|
Db|---12-12---12-12---7--7--7-7--|
Ab|----*--*----*--*---7--7--7-7--|
Eb|-------------------5--5--5-5--|

eb|-----------------------------------------------------------|
Bb|-----------------------------------------------------------|
Gb|-14-------14-------14----(x4)-11-------11-------11----(x2)-|
Db|----12-12----12-12----12---------12-12----12-12----12------|
Ab|-----*--*-----*--*-----*----------*--*-----*--*-----*------|
Eb|-----------------------------------------------------------|

eb|-xx-------xxxxxx----|
Bb|-xx-------xxxxxx----|
Gb|-xx-------xxxxxx----|
Db|-xx-7-7-7-xxxxxx-7--|
Ab|-xx-7-7-7-xxxxxx-7--|
Eb|-xx-5-5-5-xxxxxx-5--|

   Intro (rhythm guitar) _______________________ ____________________
                                            1.  |                  2.|
eb|---------------------------------------------|-xx-------xxxxxx----|
Bb|------------------------------------|-(x3)-|-|-xx-------xxxxxx----|
Gb|-o------------------------|-(x4)-|--77777777-|-xx-------xxxxxx----|
Db|-o-(lead ditty)-7--7--7-7-55555555--77777777-|-xx-7-7-7-xxxxxx-7--|
Ab|----------------7--7--7-7-55555555--55555555-|-xx-7-7-7-xxxxxx-7--|
Eb|----------------5--5--5-5-33333333-----------|-xx-5-5-5-xxxxxx-5--|

   Verse (Guitar 1)
eb|-----------------------------------------------------------------------|
Bb|-----------------------------------------------------------------------|
Gb|---------------------------------------------------------------------o-|
Db|-----4-------4-5-----4-------4-5-777-4---777-0045-777-4----7--7--7-7-o-|
Ab|-555---5-555-----555---5-555-----555---5-555------555---5--7--7--7-7---|
Eb|-333-----333-----333-----333-----***-----***------***------5--5--5-5---|
    ***     ***     ***     ***
    Verse (Guitar 2 comes in on Guitar 1's second time around)
eb|----------------------------------------------------------------------|
Bb|----------------------------------------------------------------------|
Gb|-----2-------2-4-----2-------2-4-----2---------24-----2---------------|
Db|-------4---------------4---------777---4-777-44---777---4--7--7--7-7--|
Ab|-555-----555-----555-----555-----555-----555------555------7--7--7-7--|
Eb|-333-----333-----333-----333-----***-----------------------5--5--5-5--|
    ***     ***     ***     ***

 Both Guitars:
eb|-----------|
Bb|-----------|
Gb|-----------|
Db|-5~----7~--|
Ab|-5~----7~--|
Eb|-3~----5~--|

   Prechorus:
eb|-5--5--5--5-5-5--5--5--5-5-5--5--5--5-5--------|
Bb|-3--3--3--3-3-3--3--3--3-3-3--3--3--3-3--------|
Gb|-4--4--4--4-4-2--2--2--2-2-0--0--0--0-0------o-| (x2)
Db|-0--0--0--0-0-0--0--0--0-0-0--0--0--0-0--2~~-o-|
Ab|-----------------------------------------2~~---|
Eb|-----------------------------------------0~~---|

  Chorus 1
eb|--------------------------|
Bb|--------------------------|
Gb|------------------------o-| (x4)
Db|-----0-------0-------0--o-|
Ab|---5-------7-------9------|
Eb|-3-------5-------7--------|

  Verse 2
eb|----------------------------------------------------------------------|
Bb|----------------------------------------------------------------------|
Gb|---------------------------------------------------------------------o|x2
Db|------------------------------------5555555555555555555555555--------o|
Ab|-5555555555555555555555555555555555-7777777777777777777777777-7-7-7-7-|
Eb|-3333333333333333333333333333333333---------------------------5-5-5-5-|

  Prechorus 2:
eb|---------------------------------------------|
Bb|---------------------------------------------|
Gb|---------------------------------------------|
Db|------4-------4--------------4-------4-------|
Ab|-5-5-----5-5-----5-5----5-5-----5-5-----5/7--|
Eb|-3-3-----3-3-----3-3----3-3-----3-3-----3/5--|
   * *     * *     * *    * *     * *
  Chorus 2:
eb|-------------------------------------------------5-5-5-5-5.-|
Bb|-3-3-3-3-3-3-3-3-3-3-3-3-3-3-3-3-3-3-3-3-3-3-3-3-3-3-3-3-3.-|
Gb|-2-2-2-2-2-2-2-2-0-0-0-0-0-0-0-0-0-0-0-0-0-0-0-0-0-0-0-0-0.-|
Db|-0-0-0-0-0-0-0-0-0-0-0-0-0-0-0-0-2-2-2-2-2-2-2-2-0-0-0-0-0.-|
Ab|-0-0-0-0-0-0-0-0-x-x-x-x-x-x-x-x-2-2-2-2-2-2-2-2-x-x-x-x-x.-|
Eb|-----------------3-3-3-3-3-3-3-3-0-0-0-0-0-0-0-0-3-3-3-3-3.-|

  After chorus:
eb|----------------------------------------------------------|
Bb|----------------------------------------------------------|
Gb|-14-------14-------14---(x2)-11-------11-------11---(x2)--|
Db|----12-12----12-12----12--------12-12----12-12----12------|
Ab|----------------------------------------------------------|
Eb|----------------------------------------------------------|

eb|------------------------------------------------------|
Bb|------------------------------------------------------|
Gb|-12-------12-------12---(x2)-12---12---11-------------|
Db|----12-12----12-12----12-------------------------11~--|
Ab|--------------------------------------------12--------|
Eb|------------------------------------------------------|

o play prechorus
o play chorus

That is the whole song. You can't see it, but the intros are supposed to be
played super-fast. Just listen to the song and you'll understand. I'm pretty
sure that most of this is right, but some of it's probably wrong since my
computer hates purevolume. E-mail me if you have corrections.

| /  slide up
| \  slide down
| h  hammer-on
| p  pull-off
| ~  vibrato
| +  harmonic
| x  Mute note
============================================================================

URL: http://www.ultimate-guitar.com/tabs/r/relient_k/one_im_waiting_for_tab.htm

Mxtabs [http://www.mxtabs.net]
Artist: Relient K
Song: Be My Escape (Track 2)
Album: "MMHMM"

standard tuning
*=Palm mute

Intro
   5x    5x
e|--x--|-x--|
B|--10-|-9--|
G|--11-|-11-|----repeat 8 times
D|--11-|-11-|
A|--9--|-9--|
E|--x--|-x--|

Guitar 2 comes in on third time

e|---------|
B|---------|
G|---------|----figure out the timing...
D|--7---11-|
A|--5---9--|
E|---------|

I can't figure out what the first guitar is playin in the background but here is
guitar 2's line

e|--------------|
B|--------------|
G|--------------|----repeat 4 times
D|--11-11-11-9--|
A|--9--9--9--7--|
E|--------------|

Verse:

Piano plays for a minute...

e|----------------------------|
B|----------------------------|
G|----------------------------|
D|--------7----11--9-----6--7-|
A|--7--9--5----9---7--7--4--5-|
E|--5--7--------------5-------|

Chorus:
                                 8x    4x each
e|--------------|              e|----|----------|
B|--------------|              B|----|----------|
G|--------------|----3 times   G|----|----------|
D|--11--7-----9-|              D|----|--7--9----|
A|--9---5--7--7-|              A|--9-|--5--7----|
E|---------5----|              E|--7-|----------|


e|--------------|               e|--------------|
B|--------------|               B|--------------|
G|--------------|----3 times    G|--------------|
D|-----9--7--9--|               D|--11--9--7--9-|
A|--7--7--5--7--|               A|--9---7--5--7-|
E|--5-----------|               E|--------------|

Verse 2:
    *  * 2x    *  * 2x
e|---------------------|      e|----------------|
B|---------------------|      B|----------------|
G|---------------------|      G|----------------|-----repeat verse 2 twice
D|-------------7--7--7-|      D|-11--9-----6--7-|
A|--7--7--7----5--5--5-|      A|-9---7--7--4--5-|
E|--5--5--5------------|      E|--------5-------|
    *  *       *

Chorus

Bridge?
5x    5x
e|-----|----|
B|--10-|-9--|
G|--11-|-11-|----repeat 4 times
D|--11-|-11-|
A|--9--|-9--|
E|-----|----|

Bass plays for a minute

Then play the same chords as the bridge....but the strumming is different,
its easy to figure out

Piano plays for bit

                     * 8x  *  * 4x each
e|--x---x-|       e|--x-|--x--x----|
B|--x---x-|       B|--x-|--x--x----|
G|--x---x-|       G|--x-|--x--x----|
D|--11--7-|       D|--x-|--7--9----|
A|--9---5 |       A|--9-|--5--7----|
E|--x---x-|       E|--7-|--x--x----|
                      *    *  *

Chorus (starting from "I gotta get out of here")

The piano plays the rest of the time

URL: http://www.mxtabs.net/tabs.php?path=Guitar,r,1077,Relient+K,Be+My+Escape,177540

Song: High of 75 (Track 3)
Band: Relient K
Album: Mmhmm

Tabbed by: Edi K. (email me at diami_11@yahoo.com)

Tuning: (Eb-Ab-Db-Gb-Bb-Eb)

. = palm muted
~ = let ring

Intro: Acoustic
Eb|-------------------------        Eb|----------|
Bb|-------------------------        Bb|----------|
Gb|---10-10-10-10\9-9-9-9---    x6    Gb|--10~---|
Db|---10-10-10-10\9-9-9-9---        Db|--10~-----|
Ab|---8--8--8--8-\7-7-7-7---        Ab|--8~------|
Eb|-------------------------        Eb|----------|


Main Riff: 1st guitar
Eb|----------------------------------------|
Bb|---6-6-6-6--5-5-5-5--8-8-8-8--5-5-5-5---|
Gb|---5-5-5-5--5-5-5-5--5-5-5-5--5-5-5-5---|	x4
Db|----------------------------------------|
Ab|----------------------------------------|
Eb|----------------------------------------|


2nd guitar
Eb|-----------------------------------------------------------------------|
Bb|-----------------------------------------------------------------------|
Gb|---5-5-5-5-5-5-5-5-5-5-5-5-5-5-5-5-------------------------------------|
Db|---5-5-5-5-5-5-5-5-5-5-5-5-5-5-5-5--3-3-3-3-3-3-3-3-3-3-3-3-3-3-3-3----|
Ab|---3-3-3-3-3-3-3-3-3-3-3-3-3-3-3-3--3-3-3-3-3-3-3-3-3-3-3-3-3-3-3-3----|
Eb|------------------------------------1-1-1-1-1-1-1-1-1-1-1-1-1-1-1-1----|

Eb|-----------------------------------------------------------------------|
Bb|-----------------------------------------------------------------------|
Gb|-----------------------------------------------------------------------|
Db|---7-7-7-7-7-7-7-7--5-5-5-5-5-5-5-5--3-3-3-3-3-3-3-3-3-3-3-3-3-3-3-3---|
Ab|---7-7-7-7-7-7-7-7--5-5-5-5-5-5-5-5--3-3-3-3-3-3-3-3-3-3-3-3-3-3-3-3---|
Eb|---5-5-5-5-5-5-5-5--3-3-3-3-3-3-3-3--1-1-1-1-1-1-1-1-1-1-1-1-1-1-1-1---|


Verse:

Play the main riff x4 (1st guitar)


Both guitars
Eb|----------------------------------------------------------------------|
Bb|----------------------------------------------------------------------|
Gb|---5-5-5-5-5-5-5-5-5-5-5-5-5-5-5-5------------------------------------|
Db|---5-5-5-5-5-5-5-5-5-5-5-5-5-5-5-5--3-3-3-3-3-3-3-3-3-3-3-3-3-3-3-3---|
Ab|---3-3-3-3-3-3-3-3-3-3-3-3-3-3-3-3--3-3-3-3-3-3-3-3-3-3-3-3-3-3-3-3---|
Eb|------------------------------------1-1-1-1-1-1-1-1-1-1-1-1-1-1-1-1---|
      . . . .				   . . . . . . . . . . . . . .

Eb|----------------------------------------------------------------------|
Bb|----------------------------------------------------------------------|
Gb|----------------------------------------------------------------------|
Db|---7-7-7-7-7-7-7-7--5-5-5-5-5-5-5-5--3-3-3-3-3-3-3-3-3-3-3-3-3-3-3-3--|
Ab|---7-7-7-7-7-7-7-7--5-5-5-5-5-5-5-5--3-3-3-3-3-3-3-3-3-3-3-3-3-3-3-3--|
Eb|---5-5-5-5-5-5-5-5--3-3-3-3-3-3-3-3--1-1-1-1-1-1-1-1-1-1-1-1-1-1-1-1--|


Prechorus: Both guitar
Eb|-------------------------------------------------------------|
Bb|-------------------------------------------------------------|
Gb|-------------------------------------------------------------|	x2
Db|---2-2--5-5--2-2--3-3---2-2-2-2--5-5-5-5--2-2-2-2--3-3-3-3---|
Ab|---2-2--5-5--2-2--3-3---2-2-2-2--5-5-5-5--2-2-2-2--3-3-3-3---|
Eb|---0-0--3-3--0-0--1-1---0-0-0-0--3-3-3-3--0-0-0-0--1-1-1-1---|
			   . . . .  . . . .  . . . .  . . . .

Chorus: No guitar, just piano


REPEAT MAIN RIFF x2
REPEAT VERSE (Main riff x4)
REPEAT PRECHORUS (x2)

After there is another piano part during the chorus. (First time through)


Chorus 2: Both guitars
Eb|-------------------------------------------------------------------------|
Bb|-------------------------------------------------------------------------|
Gb|--5-5-5-5----------------------------------------------------------------|
Db|--5-5-5-5--3-3-3-3--7-7-7-7--5-5-5-5--2-2-2-2--3-3-3-3--2-2-2-2--5-5-5-5-|
Ab|--3-3-3-3--3-3-3-3--7-7-7-7--5-5-5-5--2-2-2-2--3-3-3-3--2-2-2-2--5-5-5-5-|
Eb|-----------1-1-1-1--5-5-5-5--3-3-3-3--0-0-0-0--1-1-1-1--0-0-0-0--3-3-3-3-|

Eb|---------------------------------------------------------|
Bb|---------------------------------------------------------|
Gb|---5-5-5-5-----------------------------------------------|
Db|---5-5-5-5--3-3-3-3--7-7-7-7--5-5-5-5--2-2-2-2--5-5-5-5--|
Ab|---3-3-3-3--3-3-3-3--7-7-7-7--5-5-5-5--2-2-2-2--5-5-5-5--|
Eb|------------1-1-1-1--5-5-5-5--3-3-3-3--0-0-0-0--3-3-3-3--|


I hope this tab wasn't confusing either. I also enjoyed making it. I'm on a role! Have fun!

Enjoy,

"black guitarist"

URL: http://www.christianguitar.org/csong/15120

----------------------------------------------------------------------
		I SO HATE CONSEQUENCES - Relient K
----------------------------------------------------------------------

Track 4
Tabbed by: Stephen Adams
Email: bigsteve0788@aol.com

Tuning: Standard
*:Palm mute


Intro:
e|---------------------------------------------------------------|
B|---------------------------------------------------------------|
G|-13-----------101010101010-888888-666666-555555----------------|
D|-x--alot------x-x-x-x-x-x--xxxxxx-xxxxxx-xxxxxx----------------|x2
A|-11-----------8-8-8-8-8-8--666666-444444-333333----------------|
E|---------------------------------------------------------------|


Intro Cont:
e|---------------------------------------------------------------|
B|---------------------------------------------------------------|
G|-66-5-6-5-6-5-66-5-66-5-6-5-6-5-66-5-6-------------------------|
D|-xx-x-x-x-x-x-xx-x-xx-x-x-x-x-x-xx-x-x-------------------------|
A|-44-3-4-3-4-3-44-3-44-3-4-3-4-3-44-3-4-------------------------|
E|---------------------------------------------------------------|


Verse:
e|---------------------------------------------------------------|
B|---------------------------------------------------------------|
G|-6-66666666666-----------------------------6-66666-------------|
D|-6-66666666666-8-88888888888-4-44444444444-6-66666-6-66666-----|
A|-4-44444444444-8-88888888888-4-44444444444-4-44444-6-66666-----|
E|---------------6-66666666666-2-22222222222---------4-44444-----|
     ***********   ***********   ***********   *****   *****


Verse Cont:
e|---------------------------------------------------------------|
B|---------------------------------------------------------------|
G|-666666666666----------------------------666666----------------|
D|-666666666666-888888888888-444444444444--666666-666666---------|
A|-444444444444-888888888888-444444444444--444444-666666---------|
E|--------------666666666666-222222222222---------444444---------|


Pre Chorus:
e|---------------------------------------------------------------|
B|---------------------------------------------------------------|
G|-----------------6~--------------------------------------------|
D|-8-8-8-8--666666-6~--------------------------------------------|
A|-8-8-8-8--666666-4~--------------------------------------------|
E|-6-6-6-6--444444-----------------------------------------------|
            ******

Chorus:
e|---------------------------------------------------------------|
B|---------------------------------------------------------------|
G|----------66666666---------------------------------------------|
D|-44444444-66666666-88888888-66666666---------------------------|x3
A|-44444444-44444444-88888888-66666666---------------------------|
E|-22222222----------66666666-44444444---------------------------|


Chorus Cont:
e|---------------------------------------------------------------|
B|---------------------------------------------------------------|
G|--------------666666666666-------------------------------------|
D|-444444444444-666666666666-------------------------------------|
A|-444444444444-444444444444-------------------------------------|
E|-222222222222--------------------------------------------------|
   ************ ************

2nd Verse:
e|---------------------------------------------------------------|
B|---------------------------------------------------------------|
G|-666666666666----------------------------666666----------------|
D|-666666666666-888888888888-444444444444--666666-666666---------|
A|-444444444444-888888888888-444444444444--444444-666666---------|
E|--------------666666666666-222222222222---------444444---------|


2nd Verse Cont:
e|---------------------------------------------------------------|
B|-----6~---6~----6~---6~--6~---6~--6~---------------------------|
G|----6----6-----6----6---6----6---6----6~-----------------------|
D|--------------------------------------6~-----------------------|
A|-4-----------------4------------------4~-----------------------|
E|------6------2---------4---6---4-------------------------------|


Interlude:
e|---------------------------------------------------------------|
B|---------------------------------------------------------------|
G|-6~------------101010-101010-131313-131313-666-666-666-666-----|
D|-6~-4~-8~-6~---x-x-x--x-x-x--x-x-x—-x-x-x--xxx-xxx-xxx-xxx-----|
A|-4~-4~-8~-6~---8-8-8--8-8-8--111111-111111-444-444-444-444-----|
E|----2~-6~-4~---------------------------------------------------|


Interlude Cont:
e|----------------|----------------------------------------------|
B|----------------|----------------------------------------------|
G|----6~------6~--|--6--6--6--6----------------------------------|
D|-4~-6~-8-66-6~--|---6--6--6--6--alot---------------------------|
A|-4~-4~-8-66-4~--|----4--4--4--4--------------------------------|
E|-2~----6-44-----|----------------------------------------------|
           **

Before Piano Part: (And when the doors were closed...)
e|---------------------------------------------------------------|
B|---------------------------------------------------------------|
G|----------------------------6~---------------------------------|
D|-444444444444-888888-666666-6~---------------------------------|
A|-444444444444-888888-666666-4~---------------------------------|
E|-222222222222-666666-444444------------------------------------|
   ************ ****** ******

End with:
e|---------------------------------------------------------------|
B|---------------------------------------------------------------|
G|-------------------------------------6~------6~----------------|
D|-444-444-666-666-888-888-888-888—-4~-6~-8-66-6~----------------|
A|-444-444-666-666-888-888-888-888—-4~-4~-8-66-4~----------------|
E|-222-222-444-444-666-666-666-666—-2~----6-44-------------------|
                                            **

Order

Intro
Verse
Prechorus
Chorus
Intro
2nd Verse
Chorus
Interlude
Before Piano
End part

This is an awesome song. It's pretty easy. Have fun.

URL: http://www.ultimate-guitar.com/tabs/r/relient_k/i_so_hate_consequences_ver2_tab.htm

Song: The Only Thing Worse Than Beating A Dead Horse Is Betting On One (Track 5)
Band: Relient K
Album: Mmhmm

Tabbed by: Edi K. (email me at diami_11@yahoo.com)

Tuning: (Eb-Ab-Db-Gb-Bb-Eb)

. = palm muted
~ = let ring


1st guitar
Eb|----------------------------------------------|
Bb|----------------------------------------------|
Gb|---9/11-11-11-11-11-11\9-9/11-11-11-11-11-11--|	x6
Db|---x-x--x--x--x--x--x--x-x-x--x--x--x--x--x---|
Ab|---7/9--9--9--9--9--9-\7-7/9--9--9--9--9--9---|
Eb|----------------------------------------------|


2nd guitar (comes in at the second time)
Eb|--------------------------------------------------|
Bb|--------------------------------------------------|
Gb|---13/14-14-14-14-14-14\13-13/14-14-14-14-14-14---|	x1
Db|---xx-xx-xx-xx-xx-xx-xx-xx-xx-xx-xx-xx-xx-xx-xx---|
Ab|---11/12-12-12-12-12-12\11-11/12-12-12-12-12-12---|
Eb|--------------------------------------------------|


2nd guitar
Eb|----------------------------------------------|
Bb|----------------------------------------------|
Gb|--------7-7-------4-----------7-7-------4-4-4-|
Db|---4-4--7-7--7-7--4--2---4-4--7-7--7-7--4-4-4-|
Ab|---4-4--5-5--7-7--2--2---4-4--5-5--7-7--2-2-2-|
Eb|---2-2-------5-5-----0---2-2-------5-5--------|
					   .....

2nd guitar
Eb|-------------------------|
Bb|-------------------------|
Gb|--------7-7-------4------|	x6
Db|---4-4--7-7--7-7--4--2---|
Ab|---4-4--5-5--7-7--2--2---|
Eb|---2-2-------5-5-----0---|

Eb|-------------------------------------------------|
Bb|-------------------------------------------------|
Gb|---7-7-7-7-7-7-7-7-7-7\6-6-6-6/9-9-9-9-9-9-9-9---|	x1
Db|---7-7-7-7-7-7-7-7-7-7\6-6-6-6/9-9-9-9-9-9-9-9---|
Ab|---5-5-5-5-5-5-5-5-5-5\4-4-4-4/7-7-7-7-7-7-7-7---|
Eb|-------------------------------------------------|


1st or 2nd guitar: Clean
Eb|----------------------------------------|
Bb|----------------------------------------|
Gb|---------------------2-2-2-2--8-8-8-8---|
Db|---4-4-4-4--7-7-7-7--2-2-2-2--8-8-8-8---|
Ab|---4-4-4-4--7-7-7-7--0-0-0-0--6-6-6-6---|
Eb|---2-2-2-2--5-5-5-5---------------------|

Eb|----------------------------------------|
Bb|----------------------------------------|
Gb|---7-7-7-7-----------9-9--2-2--4-4-4-4--|	x1
Db|---7-7-7-7--7-7-7-7--9-9--2-2--4-4-4-4--|
Ab|---5-5-5-5--7-7-7-7--7-7--0-0--2-2-2-2--|
Eb|------------5-5-5-5---------------------|
				    .....
			(Palm mute only on distortion part)

----> repeat with distortion


1st or 2nd guitar
Eb|----------------------------------------------------------------------|
Bb|----------------------------------------------------------------------|
Gb|---7-7-7-7-7-7-7-7-------------------9-9-9-9-9-9-9-9--8-8-8-8-8-8-8-8-|
Db|---7-7-7-7-7-7-7-7--7-7-7-7-7-7-7-7--9-9-9-9-9-9-9-9--8-8-8-8-8-8-8-8-|
Ab|---5-5-5-5-5-5-5-5--7-7-7-7-7-7-7-7--7-7-7-7-7-7-7-7--6-6-6-6-6-6-6-6-|
Eb|--------------------5-5-5-5-5-5-5-5-----------------------------------|

Eb|--------------------------|
Bb|--------------------------|
Gb|---11--9-------11--9------|
Db|---11--9--7----11--9--7---|
Ab|---9---7--7----9---7--7---|
Eb|----------5-----------5---|

Eb|---------------------------------|
Bb|---------------------------------|
Gb|---4-4-4-4-4-4-4-4--4~-----------|
Db|---4-4-4-4-4-4-4-4--4~--2~--4~---|
Ab|---2-2-2-2-2-2-2-2--2~--2~--4~---|
Eb|------------------------0~--2~---|


This tab was kinda difficult, but I still managed to pull through. If it
seemed complicated to you, don't hesitate to e-mail me or write a comment
or question.


Enjoy,

"black guitarist"

URL: http://www.christianguitar.org/csong/15121

Relient K
My Girls Ex-Boyfriend (Track 6)
mmhmm
tabbed by Jesuslova

tune down a half step (like almost everything else on the cd)

hold = ~
stop = ,

INTRO

Guitar 1 (lead):
eb|-----------------------------------------------------------------|
Bb|-9-9----------------------------9-9------------------------------|
Gb|-----10-10-8-8-6-6-5-5-6-6-8-6~-----10-10-8-8-6-6-5-5-6-6-8-6-10~|
Db|-----------------------------------------------------------------|
Ab|-----------------------------------------------------------------|
Eb|-----------------------------------------------------------------|

eb|---------------------------------------|
Bb|-9-9-----------------------------------|
Gb|-----10-10-8-8-6-6-5-5-6-6-8-6~--6~--8~|
Db|---------------------------------------|
Ab|---------------------------------------|
Eb|---------------------------------------|

Guitar 2 (rhythm): listen for rhythm
eb|---------------------------------------|
Bb|---------------------------------------|
Gb|----6----------------------------------|
Db|-4--6--6------4--6---------------------|
Ab|-4--4--6—(x3)-4--6---------------------|
Eb|-2-----4------2--4---------------------|

VERSE 1

Guitar 2 (rhythm): palm muted, once again listen for rhythm
eb|---------------------------------------|
Bb|---------------------------------------|
Gb|----6----------------------------------|
Db|-4--6--6-------------------------------|
Ab|-4--4--6-------------------------------|
Eb|-2-----4-------------------------------|

Guitar 1 (lead): about 0:20 in the song
eb|---------------------------------------|
Bb|---------------------------------------|
Gb|---------------------------------------|
Db|-6-6-8-6-4-----------------------------|
Ab|---------------------------------------|
Eb|---------------------------------------|

BRIDGE

Both Guitars:
eb|---------------------------------|
Bb|---------------------------------|
Gb|----6-----6-----------6--8-----6~|
Db|-4--6--4--6--6-6-6-4--6--8-8-4-6~|
Ab|-4--4--4--4--6-6-6-4--4--6-8-4-4~|
Eb|-2-----2-----4-4-4-2-------6-2---|
                . . .

Repeat verse

Repeat bridge (don't play during piano)

CHORUS

Both Guitars:
eb|-------------------------------------------|
Bb|-------------------------------------------|
Gb|----6---------------------------6--8-----6~|
Db|-4--6--6-6-6-6-4--8--6-6-6-6-4--6--8-4-6-6~|
Ab|-4--4--6-6-6-6-4--8--6-6-6-6-4--4--6-4-6-4~|
Eb|-2-----4-4-4-4-2--6--4-4-4-4-2-------2-4---|
          . . . .       . . . .

Repeat intro

BRIDGE 2

Both Guitars:
eb|----------------------------2~|
Bb|----------------------------2~|
Gb|-------------------6--8-----2~|
Db|-4-4,-3--6------4--6--8-8-6-4~|
Ab|-4-4,-4--6-(x2)-4--4--6-8-6-4~|
Eb|-2-2,-1--4------2-------6-4-2~|

Repeat bridge

Repeat chorus with full chords on acoustic guitar
Chord order (relative to tuning) is F# C# G#  F# A#m G#  F# C# D#m F# G# C#

And that's it, have fun :-D

URL: http://www.christianguitar.org/csong/15452

More Than Useless (Track 7)
Relient K
Album: MmmHmm
C 2004 Gotee Records

Transcribed by scheller
Check www.powertabs.net for a powertab of this and more or the Powertab
Forum on this site:
http://www.christianguitar.org/forums/forumdisplay.php?f=258

This is a comprehensive tab so it's going to be long and maybe a little
complex for beginners.  The first two tabs already here are not complete
and the third just had the intro (but it's correct).

All guitars tuned down 1/2 step: Eb Ab Db Gb Bb Eb\

 Intro
|-0-0-0-0-0-0-0-0-|-0-0-0-0-0-0-0-0-|-0-0-0-0-0-0-0-0-|-0-0-0-0-0-0-0-0--|
|-4-4-4-5-5-5-0-0-|-0-2-2-2-4-4-4-4-|-4-4-4-5-5-5-0-0-|-0-2-2-2-4-4-4-4--|
|-----------------|-----------------|-----------------|------------------|
|-----------------|-----------------|-----------------|------------------|
|-----------------|-----------------|-----------------|------------------|
|-----------------|-----------------|-----------------|------------------|

  C#5                 A5              E5
|-----------------|-----------------|-----------------|------------------|
|-----------------|-----------------|-----------------|------------------|
|-----------------|-----------------|-----------------|------------------|
|-6-6-6-6-----6---|-----------------|-----------------|------------------|
|-4-4-4-4-----4---|---7---7-7---7---|-2-2---2-2---2---|---2---2-2-2-2-2--|
|-----------------|---5---5-5---5---|-0-0---0-0---0---|---0---0-0-0-0-0--|
|
|-0-0-0-0-0-0-0-0-|-0-0-0-0-0-0-0-0-|-0-0-0-0-0-0-0-0-|-0-0-0-0-0-0-0-0--|
|-4-4-4-5-5-5-0-0-|-0-2-2-2-4-4-4-4-|-4-4-4-5-5-5-0-0-|-0-2-2-2-4-4-4-4--|
|-----------------|-----------------|-----------------|------------------|
|-----------------|-----------------|-----------------|------------------|
|-----------------|-----------------|-----------------|------------------|
|-----------------|-----------------|-----------------|------------------|

  C#5                        A5
|------------------------|---------------------|
|------------------------|---------------------|
|------------------------|---------------------|
|--6--6--6--6-------6----|---------------------|
|--4--4--4--4-------4----|----7----7--7----7---|
|------------------------|----5----5--5----5---|
|
|--0--0--0--0--0-0--0--0-|-0--0-0--0--0-0--0-0-|
|--4--4--4--5--5-5--0--0-|-0--2-2--2--4-4--4-4-|
|------------------------|---------------------|
|------------------------|---------------------|
|------------------------|---------------------|
|------------------------|---------------------|
|
|------------------------|---------------------|
|------------------------|---------------------|
|-11-11-11-13-13---11-11-|---14---14-13---11---|
|------------------------|---------------------|
|--9--9--9-11-11----9--9-|---12---12-11----9---|
|------------------------|---------------------|

  E5
|-----------------------|--------------------------||
|-----------------------|--------------------------||
|-----------------------|--------------------------||
|-----------------------|--------------------------||
|--2--2----2--2----2----|-----2-----2--2--2--2--2--||
|--0--0----0--0----0----|-----0-----0--0--0--0--0--||
|
|--0--0-0--0--0-0--0--0-|--0--0--0--0--0--0--0--0--||
|--4--4-4--5--5-5--0--0-|--0--2--2--2--4--4--4--4--||
|-----------------------|--------------------------||
|-----------------------|--------------------------||
|-----------------------|--------------------------||
|-----------------------|--------------------------||
|
|-----------------------|--------------------------||
|-----------------------|--------------------------||
|-13-13---13-13---13-13-|-13-13-13-13-13-13-13-13--||
|-----------------------|--------------------------||
|-11-11---11-11---11-11-|-11-11-11-11-11-11-11-11--||
|-----------------------|--------------------------||


 Verses
  E5                                 C#5               A5
|----------------|-----------------|-----------------|------------------|
|----------------|-----------------|-----------------|------------------|
|----------------|-----------------|-----------------|------------------|
|-9--9-9-9-9-9-9-|-9-9-9-9-9-9-9-9-|-6-6-6-6-6-6-6-6-|------------------|
|-7--7-7-7-7-7-7-|-7-7-7-7-7-7-7-7-|-4-4-4-4-4-4-4-4-|-7-7-7-7-7-7-7-7--|
|----------------|-----------------|-----------------|-5-5-5-5-5-5-5-5--|

  E5                                  C#5               A5
|-----------------|-----------------|-----------------|------------------||
|-----------------|-----------------|-----------------|------------------||
|-----------------|-----------------|-----------------|------------------||
|-9-9-9-9-9-9-9-9-|-9-9-9-9-9-9-9-9-|-6-6-6-6-6-6-6-6-|------------------||
|-7-7-7-7-7-7-7-7-|-7-7-7-7-7-7-7-7-|-4-4-4-4-4-4-4-4-|-7-7-7-7-7-7-7-7--||
|-----------------|-----------------|-----------------|-5-5-5-5-5-5-5-5--||


 Pre-Chorus
  E5                                C#5              A5     B5
|----------------|----------------|----------------|---------------------|
|----------------|----------------|----------------|---------------------|
|----------------|----------------|----------------|---------------------|
|----------------|----------------|-6-6--------6-6-|---------------------|
|-2-2--------2-2-|-2-2--------2-2-|-4-4--------4-4-|-7-7--7--9--9-----9--|
|-0-0--------0-0-|-0-0--------0-0-|----------------|-5-5--5--7--7-----7--|
|
|------0-0-0-0-0-|------0-0-0-0-0-|------0-0-0-0-0-|------0--0--0--0--0--|
|------5-5-5-5-5-|------5-5-5-5-5-|------5-5-5-5-5-|------5--5--5--5--5--|
|----------------|----------------|----------------|---------------------|
|----------------|----------------|----------------|---------------------|
|----------------|----------------|----------------|---------------------|
|----------------|----------------|----------------|---------------------|
|
|----------------|----------------|----------------|---------------------|
|----------------|----------------|----------------|---------------------|
|----------------|----------------|----------------|--------11-11-11-11--|
|----------------|----------------|----------------|---------------------|
|----------------|----------------|----------------|---------9--9--9--9--|
|----------------|----------------|----------------|---------------------|


  E5                                C#5              A5     B5
|----------------|----------------|----------------|--------------------||
|----------------|----------------|----------------|--------------------||
|----------------|----------------|----------------|--------------------||
|----------------|----------------|-6-6--------6-6-|--------------------||
|-2-2--------2-2-|-2-2--------2-2-|-4-4--------4-4-|-7-7--7-9--9--------||
|-0-0--------0-0-|-0-0--------0-0-|----------------|-5-5--5-7--7--------||
|
|------0-0-0-0-0-|------0-0-0-0-0-|------0-0-0-0-0-|------0-0--0--0--0--||
|------5-5-5-5-5-|------5-5-5-5-5-|------5-5-5-5-5-|------5-5--5--5--5--||
|----------------|----------------|----------------|--------------------||
|----------------|----------------|----------------|--------------------||
|----------------|----------------|----------------|--------------------||
|----------------|----------------|----------------|--------------------||
|
|----------------|----------------|----------------|--------------------||
|----------------|----------------|----------------|--------------------||
|----------------|----------------|----------------|------9-9-11-11-11--||
|----------------|----------------|----------------|--------------------||
|----------------|----------------|----------------|------7-7--9--9--9--||
|----------------|----------------|----------------|--------------------||


   Interlude
    E                 B/D#              C#m               A5               2x
||------------------|-----------------|-----------------|-----------------||
||o-----------------|-----------------|-----------------|----------------o||
||------------------|-----------------|-----------------|-----------------||
||--6-6-6-6-6-6-6-6-|-4-4-4-4-4-4-4-4-|-2-2-2-2-2-2-2-2-|-2-2-2-2-2-2-2-2-||
||o-7-7-7-7-7-7-7-7-|-6-6-6-6-6-6-6-6-|-4-4-4-4-4-4-4-4-|-0-0-0-0-0-0-0-0o||
||------------------|-----------------|-----------------|-----------------||

  G#/C                  C#5       B5
|---------------------|---------------------||
|---------------------|---------------------||
|-(5)--(5)--(5)--(5)--|-(6)--(6)--(4)--(4)--||
|--6----6----6----6---|--6----6----4----4---||
|--3----3----3----3---|--4----4----2----2---||
|---------------------|---------------------||


 Chorus 1
  E5                                A5
|---------------|-----------------|---------------|------------------|
|---------------|-----------------|---------------|------------------|
|---------------|-----------------|---------------|------------------|
|---------------|-----------------|-2-2--2-2-2--2-|-2----------------|
|-2-2--2-2-2--2-|-2---------------|-0-0--0-0-0--0-|-0----------------|
|-0-0--0-0-0--0-|-0---------------|---------------|------------------|
|
|---------------|-----------------|---------------|------------------|
|---------------|-----------------|---------------|------------------|
|---------------|---1-------------|---------------|---1--------------|
|---------------|-----4-1-1-2-2-2-|---------------|-----4-1-1-2-2-2--|
|---------------|-----------------|---------------|------------------|
|---------------|-----------------|---------------|------------------|


  C#5                               A5             Am
|---------------|-----------------|--------------|------||
|---------------|-----------------|--------------|-1----||
|---------------|-----------------|--------------|-2----||
|-6-6--6-6-6--6-|-6---------------|-2-2--2-2-2---|-2----||
|-4-4--4-4-4--4-|-4---------------|-0-0--0-0-0---|-0----||
|---------------|-----------------|--------------|------||
|
|---------------|-----------------|--------------|------||
|---------------|-----------------|--------------|------||
|---------------|---1-------------|--------------|------||
|---------------|-----4-1-1-2-2-2-|--------------|------||
|---------------|-----------------|--------------|------||
|---------------|-----------------|--------------|------||


 Post-Chorus
  C#5                 A5              E5
|-----------------|-----------------|-----------------|------------------|
|-----------------|-----------------|-----------------|------------------|
|-----------------|-----------------|-----------------|------------------|
|-6-6-6-6-----6---|---2---2-2---2---|-----------------|------------------|
|-4-4-4-4-----4---|---0---0-0---0---|-2-2---2-2---2---|---2---2-2-2-2-2--|
|-----------------|-----------------|-0-0---0-0---0---|---0---0-0-0-0-0--|
|
|-0-0-0-0-0-0-0-0-|-0-0-0-0-0-0-0-0-|-0-0-0-0-0-0-0-0-|-0-0-0-0-0-0-0-0--|
|-4-4-4-5-5-5-0-0-|-0-2-2-2-4-4-4-4-|-4-4-4-5-5-5-0-0-|-0-2-2-2-4-4-4-4--|
|-----------------|-----------------|-----------------|------------------|
|-----------------|-----------------|-----------------|------------------|
|-----------------|-----------------|-----------------|------------------|
|-----------------|-----------------|-----------------|------------------|

  C#5                      A5
|----------------------|----------------------||
|----------------------|----------------------||
|----------------------|----------------------||
|--6--6--6--6------6---|----2-----2--2----2---||
|--4--4--4--4------4---|----0-----0--0----0---||
|----------------------|----------------------||
|
|--0--0--0--0-0-0--0-0-|-0--0--0--0--0-0--0-0-||
|--4--4--4--5-5-5--0-0-|-0--2--2--2--4-4--4-4-||
|----------------------|----------------------||
|----------------------|----------------------||
|----------------------|----------------------||
|----------------------|----------------------||
|
| Gtr III
|----------------------|----------------------||
|----------------------|----------------------||
|-11-11-11-13-----11---|---11-11-11-13---11---||
|----------------------|----------------------||
|--9--9--9-11------9---|----9--9--9-11----9---||
|----------------------|----------------------||


[Play Verse and Pre-Chorus again and then...]

 Bridge (repeat 2x)
  &
  E               B/D#            C#m              A
|-----0-----0---|--------0------|--------0-------|-----------0-------|
|--------4------|-----4-----4---|-----2------2---|-------0-------0---|
|--4----------4-|--4----------4-|--4-----------4-|---2---------------|
|---------------|---------------|----------------|-------------------|
|---------------|---------------|----------------|-------------------|
|---------------|---------------|----------------|-------------------|
|
|---------------|---------------|----------------|---------<12>------|
|----12---------|----12---------|----12----------|-----<12>----<12>--|
|---------------|---------------|----------------|-------------------|
|-14----13-14---|-14----13-14---|-14----13-14----|-------------------|
|---------------|---------------|----------------|-<12>--------------|
|---------------|---------------|----------------|-------------------|
|
| (keys)
|-16------------|-14------------|-12-------------|-------------------|
|---------------|---------------|----------------|--12---------------|
|---------------|---------------|----------------|-------------------|
|-14------------|-13------------|-11-------------|-------------------|
|---------------|---------------|----------------|--12---------------|
|---------------|---------------|----------------|-------------------|


  G#/C                  C#5       B5
|---------------------|---------------------||
|---------------------|---------------------||
|-(5)--(5)--(5)--(5)--|-(6)--(6)--(4)--(4)--||
|--6----6----6----6---|--6----6----4----4---||
|--3----3----3----3---|--4----4----2----2---||
|---------------------|---------------------||


 Chorus 2
  E5                                A5
|---------------|-----------------|---------------|------------------|
|---------------|-----------------|---------------|------------------|
|---------------|-----------------|---------------|------------------|
|---------------|-----------------|-2-2--2-2-2--2-|-2----------------|
|-2-2--2-2-2--2-|-2---------------|-0-0--0-0-0--0-|-0----------------|
|-0-0--0-0-0--0-|-0---------------|---------------|------------------|
|
|---------------|-----------------|---------------|------------------|
|---------------|-----------------|---------------|------------------|
|---------------|---1-------------|---------------|---1--------------|
|---------------|-----4-1-1-2-2-2-|---------------|-----4-1-1-2-2-2--|
|---------------|-----------------|---------------|------------------|
|---------------|-----------------|---------------|------------------|


  C#5                               A5              Am
|---------------|-----------------|---------------|----------------|
|---------------|-----------------|---------------|-1-1--1-1-1-----|
|---------------|-----------------|---------------|-2-2--2-2-2--2--|
|-6-6--6-6-6--6-|-6---------------|-2-2--2-2-2--2-|-2-2--2-2-2--2--|
|-4-4--4-4-4--4-|-4---------------|-0-0--0-0-0--0-|-0-0--0-0-0--0--|
|---------------|-----------------|---------------|----------------|
|
|---------------|-----------------|---------------|----------------|
|---------------|-----------------|---------------|----------------|
|---------------|---1-------------|---------------|----------------|
|---------------|-----4-1-1-2-2-2-|---------------|----------------|
|---------------|-----------------|---------------|----------------|
|---------------|-----------------|---------------|----------------|


  E5                                   A5
|---------------|--------------------|---------------|---------------------|
|---------------|--------------------|---------------|---------------------|
|---------------|--------------------|---------------|---------------------|
|---------------|--------------------|-2-2--2-2-2--2-|-2-2--2--2--2-----2--|
|-2-2--2-2-2--2-|-2-2--2--2--2-----2-|-0-0--0-0-0--0-|-0-0--0--0--0-----0--|
|-0-0--0-0-0--0-|-0-0--0--0--0-----0-|---------------|---------------------|
|
|---------------|--------------------|---------------|---------------------|
|---------------|--------------------|---------------|---------------------|
|-9-9--9-9-9--9-|-9-9--9-11-11-13-13-|-9-9--9-9-9--9-|-9-9--9-11-11-13-13--|
|---------------|--------------------|---------------|---------------------|
|-7-7--7-7-7--7-|-7-7--7--9--9-11-11-|-7-7--7-7-7--7-|-7-7--7--9--9-11-11--|
|---------------|--------------------|---------------|---------------------|


  C#5                                  A5              Am
|---------------|--------------------|---------------|-0----||
|---------------|--------------------|---------------|-1----||
|---------------|--------------------|---------------|-2----||
|-6-6--6-6-6--6-|-6-6--6--6--6-----6-|-2-2--2-2-2--2-|-2----||
|-4-4--4-4-4--4-|-4-4--4--4--4-----4-|-0-0--0-0-0--0-|-0----||
|---------------|--------------------|---------------|------||
|
|---------------|--------------------|---------------|------||
|---------------|--------------------|---------------|------||
|-9-9--9-9-9--9-|-9-9--9-11-11-13-13-|-9-9--9-9-9--9-|-9----||
|---------------|--------------------|---------------|------||
|-7-7--7-7-7--7-|-7-7--7--9--9-11-11-|-7-7--7-7-7--7-|-7----||
|---------------|--------------------|---------------|------||


   Bridge 2
    E                                   C#m               A                2x
||--0-0-0-0-0-0-0-0-|-0-0-0-0-0-0-0-0-|-0-0-0-0-0-0-0-0-|-0-0-0-0-0-0-0-0-||
||o-4-4-4-5-5-5-0-0-|-0-2-2-2-4-4-4-4-|-4-4-4-5-5-5-0-0-|-0-2-2-2-4-4-4-4o||
||------------------|-----------------|-----------------|-----------------||
||------------------|-----------------|-----------------|-----------------||
||o-----------------|-----------------|-----------------|----------------o||
||------------------|-----------------|-----------------|-----------------||
|
|   (keys)
||------------------|-----------------|-----------------|-----------------||
||o-------7---9-----|-----------------|-----------------|----------------o||
||--9---------------|-----------------|-6---------------|-2---------------||
||--9---------------|-----------------|-6---------------|-2---------------||
||o-7---7-----------|-----------------|-4---------------|-0--------------o||
||------------------|-----------------|-----------------|-----------------||


 Breakdown
  A5                        C#5
|-------------------------|-------------------------|
|-------------------------|-------------------------|
|-------------------------|-------------------------|
|--2--2--2--2--2--2--2--2-|--6--6--6--6--6--6--6--6-|
|--0--0--0--0--0--0--0--0-|--4--4--4--4--4--4--4--4-|
|-------------------------|-------------------------|
|
|-------------------------|-------------------------|
|-------------------------|-------------------------|
|-13-13-13-13-13-13-13-13-|-13-13-13-13-13-13-13-13-|
|-------------------------|-------------------------|
|-11-11-11-11-11-11-11-11-|-11-11-11-11-11-11-11-11-|
|-------------------------|-------------------------|

  A5                        E5
|-------------------------|--------------------------|
|-------------------------|--------------------------|
|-------------------------|--------------------------|
|--2--2--2--2--2--2--2--2-|--------------------------|
|--0--0--0--0--0--0--0--0-|--2--2--2--2--2--2--2--2--|
|-------------------------|--0--0--0--0--0--0--0--0--|
|
|-------------------------|--------------------------|
|-------------------------|--------------------------|
|-13-13-13-13-13-13-13-13-|-13-13-13-13-13-13-13-13--|
|-------------------------|--------------------------|
|-11-11-11-11-11-11-11-11-|-11-11-11-11-11-11-11-11--|
|-------------------------|--------------------------|

  A5                        C#5
|-------------------------|-------------------------|
|-------------------------|-------------------------|
|-------------------------|-------------------------|
|--2--2--2--2--2--2--2--2-|--6--6--6--6--6--6--6--6-|
|--0--0--0--0--0--0--0--0-|--4--4--4--4--4--4--4--4-|
|-------------------------|-------------------------|
|
|-------------------------|-------------------------|
|-------------------------|-------------------------|
|-13-13-13-13-13-13-13-13-|-13-13-13-13-13-13-13-13-|
|-------------------------|-------------------------|
|-11-11-11-11-11-11-11-11-|-11-11-11-11-11-11-11-11-|
|-------------------------|-------------------------|

  E5                        B5
|-------------------------|--------------------------|
|-------------------------|--------------------------|
|-------------------------|--------------------------|
|-------------------------|--4--4--4--4--4--4--4--4--|
|--2--2--2--2--2--2--2--2-|--2--2--2--2--2--2--2--2--|
|--0--0--0--0--0--0--0--0-|--------------------------|
|
|-------------------------|--------------------------|
|-------------------------|--------------------------|
|-13-13-13-13-13-13-13-13-|-11-11-11-11-11-11-11-11--|
|-------------------------|--------------------------|
|-11-11-11-11-11-11-11-11-|--9--9--9--9--9--9--9--9--|
|-------------------------|--------------------------|

  A5               B5               C#5              B5
|----------------|----------------|----------------|-----------------|
|----------------|----------------|----------------|-----------------|
|----------------|----------------|----------------|-----------------|
|-2-2--------2-2-|-4-4--------4-4-|-6-6--------6-6-|--4-4------------|
|-0-0--------0-0-|-2-2--------2-2-|-4-4--------4-4-|--2-2------------|
|----------------|----------------|----------------|-----------------|
|
|----------------|----------------|----------------|-----------------|
|----------------|----------------|----------------|-----------------|
|-----9-8--9-9-9-|-----9-8--9-9-9-|-----9-8--9-9-9-|-11-9--8--9-9-9--|
|----------------|----------------|----------------|-----------------|
|-----7-6--7-7-7-|-----7-6--7-7-7-|-----7-6--7-7-7-|--9-7--6--7-7-7--|
|----------------|----------------|----------------|-----------------|

  A5                        B5
|-------------------------|-------------------------|
|-------------------------|-------------------------|
|-------------------------|-------------------------|
|--2--2--2--2--2--2--2--2-|--4--4--4--4--4--4--4--4-|
|--0--0--0--0--0--0--0--0-|--2--2--2--2--2--2--2--2-|
|-------------------------|-------------------------|
|
|-------------------------|-------------------------|
|-------------------------|-------------------------|
|-13-13-13-13-13-13-13-13-|-13-13-13-13-13-13-13-13-|
|-------------------------|-------------------------|
|-11-11-11-11-11-11-11-11-|-11-11-11-11-11-11-11-11-|
|-------------------------|-------------------------|

  C#5                       G#/C C#5B5
|-------------------------|--------------||
|-------------------------|--------------||
|-------------------------|--------------||
|--6--6--6--6--6--6--6--6-|-6-6--6--4----||
|--4--4--4--4--4--4--4--4-|-3-3--4--2----||
|-------------------------|--------------||
|
|-------------------------|--------------||
|-------------------------|--------------||
|-13-13-13-13-13-13-13-13-|--------------||
|-------------------------|--------------||
|-11-11-11-11-11-11-11-11-|--------------||
|-------------------------|--------------||


 Chorus 3
  E5                                A5
|---------------|-----------------|---------------|------------------|
|---------------|-----------------|---------------|------------------|
|---------------|-----------------|---------------|------------------|
|---------------|-----------------|-2-2--2-2-2--2-|-2-2---2-2-2---2--|
|-2-2--2-2-2--2-|-2-2---2-2-2---2-|-0-0--0-0-0--0-|-0-0---0-0-0---0--|
|-0-0--0-0-0--0-|-0-0---0-0-0---0-|---------------|------------------|
|
|---------------|-----------------|---------------|------------------|
|---------------|-----------------|---------------|------------------|
|---------------|---1-------------|---------------|---1--------------|
|---------------|-----4-1-1-2-2-2-|---------------|-----4-1-1-2-2-2--|
|---------------|-----------------|---------------|------------------|
|---------------|-----------------|---------------|------------------|

  C#5                               A5              Am
|---------------|-----------------|---------------|----------------|
|---------------|-----------------|---------------|-1-1--1-1-1-----|
|---------------|-----------------|---------------|-2-2--2-2-2--2--|
|-6-6--6-6-6--6-|-6-6---6-6-6---6-|-2-2--2-2-2--2-|-2-2--2-2-2--2--|
|-4-4--4-4-4--4-|-4-4---4-4-4---4-|-0-0--0-0-0--0-|-0-0--0-0-0--0--|
|---------------|-----------------|---------------|----------------|
|
|---------------|-----------------|---------------|----------------|
|---------------|-----------------|---------------|----------------|
|---------------|---1-------------|---------------|----------------|
|---------------|-----4-1-1-2-2-2-|---------------|----------------|
|---------------|-----------------|---------------|----------------|
|---------------|-----------------|---------------|----------------|

  E5                                   A5
|---------------|--------------------|---------------|---------------------|
|---------------|--------------------|---------------|---------------------|
|---------------|--------------------|---------------|---------------------|
|---------------|--------------------|-2-2--2-2-2--2-|-2-2--2--2--2-----2--|
|-2-2--2-2-2--2-|-2-2--2--2--2-----2-|-0-0--0-0-0--0-|-0-0--0--0--0-----0--|
|-0-0--0-0-0--0-|-0-0--0--0--0-----0-|---------------|---------------------|
|
|---------------|--------------------|---------------|---------------------|
|---------------|--------------------|---------------|---------------------|
|-9-9--9-9-9--9-|-9-9--9-11-11-13-13-|-9-9--9-9-9--9-|-9-9--9-11-11-13-13--|
|---------------|--------------------|---------------|---------------------|
|-7-7--7-7-7--7-|-7-7--7--9--9-11-11-|-7-7--7-7-7--7-|-7-7--7--9--9-11-11--|
|---------------|--------------------|---------------|---------------------|

  C#5                                 A5
|-----------------|-----------------|-----------------|------------------||
|-----------------|-----------------|-----------------|------------------||
|-----------------|-----------------|-----------------|------------------||
|-6-6-6-6-6-6-6-6-|-6-6-6-6-6-6-6-6-|-2-2-2-2-2-2-2-2-|-2-2-2-2-2-2-2-2--||
|-4-4-4-4-4-4-4-4-|-4-4-4-4-4-4-4-4-|-0-0-0-0-0-0-0-0-|-0-0-0-0-0-0-0-0--||
|-----------------|-----------------|-----------------|------------------||
|
|-----------------|-----------------|-----------------|------------------||
|-----------------|-----------------|-----------------|------------------||
|-9-9-9-9-9-9-9-9-|-9-9-9-9-9-9-9-9-|-9-9-9-9-9-9-9-9-|-9-9-9-9-9-9-9-9--||
|-----------------|-----------------|-----------------|------------------||
|-7-7-7-7-7-7-7-7-|-7-7-7-7-7-7-7-7-|-7-7-7-7-7-7-7-7-|-7-7-7-7-7-7-7-7--||
|-----------------|-----------------|-----------------|------------------||


 Outro
  E5                         A5
|------------|-------------|-----------------|------------------|
|------------|-------------|-----------------|------------------|
|------------|-------------|-2---------------|------------------|
|--2---------|-------------|-2---------------|------------------|
|--2---------|-------------|-0---------------|------------------|
|--0---------|-------------|-----------------|------------------|
|
|                   <
|                   TP
|------------|-------------|-0-0-0-0-0-0-0-0-|-0-0-0-0-0-0-0-0--|
|------------|-------------|-4-4-4-5-5-5-0-0-|-0-2-2-2-4-4-4-4--|
|-(9)--------|-(9)--9------|-----------------|------------------|
|------------|-------------|-----------------|------------------|
|-(7)--------|-(7)---------|-----------------|------------------|
|------------|-------------|-----------------|------------------|
                    *Tremolo Pick (probably just an effects pedal
                                   and not actually played)

    E5                                  A5                                 3x
||------------------|-----------------|-----------------|-----------------||
||o-----------------|-----------------|-----------------|----------------o||
||------------------|-----------------|-2---------------|-----------------||
||--2---------------|-----------------|-2---------------|-----------------||
||o-2---------------|-----------------|-0---------------|----------------o||
||--0---------------|-----------------|-----------------|-----------------||
|
||--0-0-0-0-0-0-0-0-|-0-0-0-0-0-0-0-0-|-0-0-0-0-0-0-0-0-|-0-0-0-0-0-0-0-0-||
||o-4-4-4-5-5-5-0-0-|-0-2-2-2-4-4-4-4-|-4-4-4-5-5-5-0-0-|-0-2-2-2-4-4-4-4o||
||------------------|-----------------|-----------------|-----------------||
||------------------|-----------------|-----------------|-----------------||
||o-----------------|-----------------|-----------------|----------------o||
||------------------|-----------------|-----------------|-----------------||

  E5
|----------|------------|------------|--------*|
|----------|------------|------------|--------*|
|----------|------------|------------|--------*|
|-2--------|-(2)--------|-(2)--------|-(2)----*|
|-2--------|-(2)--------|-(2)--------|-(2)----*|
|-0--------|-(0)--------|-(0)--------|-(0)----*|
|
|-0--------|-(0)--------|-(0)--------|-(0)----*|
|-0--------|-(0)--------|-(0)--------|-(0)----*|
|----------|------------|------------|--------*|
|----------|------------|------------|--------*|
|----------|------------|------------|--------*|
|----------|------------|------------|--------*|


Generated using PowerTab Editor - Brad Larson - www.power-tab.net

URL: http://www.christianguitar.org/csong/15208

Which to Bury, Us or the Hatchet (Track 8)
Relient K
Written by Matt Thiessen
2004 Gotee Records

This is my absolute favourite song on the new cd... I can't believe no one
posted it yet. I think this is right... almost 100%

I usually play this half step down, just because almost every other song
is played like that, so please excuse any minor errors

Verse 1
Guitar 1
e-------------------------------------------|
B-------------------------------------------|
G-------------------------------------------| (PS: those 16's and 8's
D-13--16x--14--16x--11--16x--11--8x--11--8x-| are referring to the number
A-11-------11-------11-------9-------10-----| of times you play the chord)
E-------------------------------------------|
  G#m      E        C#m      F#      G+b5*
   play that all twice

Guitar 2 (comes in after 1x Guitar 1)
(palm muted)
e--------------------|
B--------------------|
G--------------4-----|
D-6-----2------4-16x-|
A-6-16x-2-16x--2-----|    then just let Guitar 1 do that other part
E-4-----0------------|    (or play it too)
  G#m   E      C#m
Pre-Chorus
e------------------------|
B------------------------|
G-------4-----     G-12--|
D-2-----4-x16- x2  D-x---|
A-2-x16-2-----     A-10--| x8 fast
E-0----------------------|
  E     B            G
Chorus
e--------------------------------|
B---------------[--pm--]---------|
G------------44-66666666------44-|
D-222-22-666-44-66666666-6666-44-| x2
A-222-22-666-22-44444444-6666-22-|
E-000-00-444-------------4444----|
  E      G#m B  C#m      G#m  B

End of Chorus
e------------------|
B------------------|
G------------------|
D-2222222222222222- then same chords as verse palm muted
A-2222222222222222-
E-0000000000000000-
  E (palm muted)

The banjo then plays something like this if you want to
play along:
e--------------------------------------------------------------------|
B--------------------------------------------------------------------|
G--4--4--4-4--4--4-4---4--4-4--4--4-4--4--4-4--4--4------------------|
D---6--6----6--6-----6--6----6--6----6--6----6--6--------------------|
A-6--6--6----6--6--7--7--7----7--7--4-4--4----4--4-------------------|
E--------------------------------------------------------------------|

e---------------------|
B---------------------|
G-6--6--6-6----6---6--|
D--7--7-----7---7-----|
A-9-9--9--10-10--10---|
E---------------------|

Verse 2
Chords from Verse 1 once through then gets quiet and a guitar does
something like this:
e-------------------------------------------------------------------|
B----11--9--11-9--12-9---12-9-12-9--12-9------12--9---12--9--12-9---|
G-8-8---8--8--8--8-----9---9-9--9--9--------------------------------|
D----------------------------------------11-11--11--11--11-11-------|
A-------------------------------------------------------------------|
E-------------------------------------------------------------------|

e--------------|
B--------------|
G--------------|
D--------------|
A-11-x8--11-x8-|
E-9------10----|

Chorus without the ending then this:

Bridge (I love this part)
e---------------------------------------------------------------------------|
B---------------------------------------------------------------------------|
G-11-11-11-888-11-11-11-888-11-8--11-11-11-8--8--8--11-11-11-8--8--8--11-8--|
D-9--9--9--999-9--9--9--999-9--9--9--9--9--9--9--9--9--9--9--9--9--9--9--9--|
A-7--7--7--777-7--7--7--777-7--7--11-11-11-11-11-11-11-11-11-11-11-11-11-11-|
E---------------------------------------------------------------------------|
  E (E2 and Emaj7 on and off)     G#m (G#2 and G#m on and off)

e-----------------------------------------|
B-----------------------------------------|
G-----------------------------------------|
D-666-9-2222-22-6666-66--2222-22-6666-66--| x2
A-666-9-2222-22-6666-66--2222-22-6666-66--|
E-444-7-0000-00-4444-44--0000-00-4444-44--|

e--------|
B--------|
G--------|
D-2~--6~-|
A-2~--6~-|
E-0~--4~-|

Chorus

end on an E then play the interlude:

Interlude:
F#m E B
F#m E B
F#m E B
F#m E B

B B7 E B
B B7 E B
B B7 E B

Well that's it. I think I did pretty well... I'm sorry if it's hard to read or
wrong in places, but I think the music's pretty much correct.
This is a great song and a great album. I would highly recommend it, even
if you aren't an RK fan like me. It's great.

Well, Good Luck!
Ken (aka Handsome)
ha_thats_mildly_amusing@hotmail.com

URL: http://www.christianguitar.org/csong/15302

Title: Let It All Out (Track 9)
Album: Mmhmm
Artist: Relient K

Capo @ 2


(Verse 1)
A C#m D A
A C#m D A

(Pre-Chorus 1)
D F#m E E/G#
D F#m E D
D F#m E E/G#
D E

(Chorus)
A C#m D
F#m E D
A C#m D
F#m E E/G# D E A

(Verse 2)
A C#m D A
A C#m D A

(Pre-Chorus 2)
D F#m E  E/G#
D E

(Bridge/Instrumental)
A F#m C#m D
A F#m C#m D
A F#m C#m D
A F#m C#m D
E A

URL: http://www.christianguitar.org/csong/15223

Song: Who I Am Hates Who I've Been (Track 10)
Artist: Relient K
Written By: Matt Thiessen

well this cd is released now......and wasnt when i tabed this but its awsome
and if you dont have it buy it rate this!also i know its not 100% because on
the intro riff the second time every time its played its harmonized but if
you have three guitars figure it out yourself its not that hard i just dont
feel like tabin it. Also there were some chords on the chorus that ive changed
alot but i think there actually right now.and i caught a chord on the bridge
that was on the wrong string so i changed that.. obviously no one caught that
or if you did thanks alot for correcting it to tell me...but other than the
harmonized intro its 100%

TUNING:half step down (Eb Ab Db Gb Bb Eb)

intro
guitar 1           2x...................................................
then this along with the chords below
eb----------------------------------------------------------------|--------|
Bb--5-0-9-0-7-0-5-0-4-0-5-0-7-0-4-0-4-0-5-0-4-0-5-0-7-0-9-0-4-0-5-|---55-4-|
Gb----------------------------------------------------------------|--------|
Db----------------------------------------------------------------|--------|
Ab----------------------------------------------------------------|--------|
Eb----------------------------------------------------------------|--------|

guitar 2
                   2x
eb----------------------------------------------------------------|--------|
Bb----------------------------------------------------------------|--------|
Gb--22222222--44444444--66666666----------------------------------|---22-4-|
Db--22222222--44444444--66666666--22222222------------------------|---22-4-|
Ab--00000000--22222222--44444444--22222222------------------------|---00-2-|
Eb--------------------------------00000000------------------------|--------|

verse 1:the fisrt part is piano then:
   (clean)                 (distortion)
eb--0~-0~-0~----------|-----------------------------|
Bb--0~-0~-0~----------|-----------------------------|
Gb--2~-4~-6~----------|--2222222222222222-444444444-|
Db--2~-4~-6~----------|--2222222222222222-444444444-|
Ab--0~-2~-4~----------|--0000000000000000-222222222-|
Eb--------------------|--**************** ********--|
      2x                 *palm muted
(guitar2strums chords)

pre chorus:
eb-----------------------------|----------------------------------|
Bb-----------------------------|----------------------------------|
Gb----999-4-8888-----6666-4-4--|----999-4-8888-----------44444444-|
Db--2-xxx-4-xxxx-6-7-xxxx-4-4--|--2-xxx-4-xxxx-----------44444444-|
Ab--2-777-2-6666-6-7-4444-2-2--|--2-777-2-6666----7----7-22222222-|
Eb--0------------4-5-----------|--0------------44---55---********-|
                                               **   **

chorus:            __________                    __________
                  |          |                  |          |
eb--0000000000-----0000000000-----0000000000-----0000000000-000000-0000000-|
Bb--0000000000-----0000000000-----0000000000-----0000000000-000000-0000000-|
Gb--1111111111-444-6666666666-444-1111111111-444-6666666666-222222-4444444-|
Db--2222222222-444-6666666666-444-2222222222-444-6666666666-222222-4444444-|
Ab--2222222222-222-4444444444-222-2222222222-222-4444444444-000000-2222222-|
Eb--0000000000--------------------0000000000-------------------------------|

guitar 2 plays the same thing except for on the bracketed chords it plays.(same for the 
2 chorus\')
Gb-6-
Db-x-
Ab-4-

play the intro after chorus without the ending chords

verse 2
        2x
eb----------------------------------------------------------------------|
Bb----------------------------------------------------------------------|
Gb-------------------2222222222222222-6666666666666666-4444444444444444-|
Db--2222222222222222-2222222222222222-6666666666666666-4444444444444444-|
Ab--2222222222222222-0000000000000000-4444444444444444-2222222222222222-|
Eb--0000000000000000-****************-****************-****************-|
     ***************                                   (the second time
                                                        let off the palm
                                                        mute half way)
      2x
eb-------------44444---|--------------------------------|
Bb-------------44444---|--------------------------------|
Gb-22222-44444-88888---|--2222222222222222-444444444----|
Db-22222-44444-66666---|--2222222222222222-444444444----|
Ab-00000-22222-44444---|--0000000000000000-222222222----|
Eb---------------------|--****************-*********----|

pre-chorus

eb-0~~--|----------------------------|----------------------------------|
Bb-0~~--|----------------------------|----------------------------------|
Gb-1~~--|----999-4-8888-----6666-4-4-|----999-4-8888-----------44444444-|
Db-2~~--|--2-xxx-4-xxxx-6-7-xxxx-4-4-|--2-xxx-4-xxxx-----------44444444-|
Ab-2~~--|--2-777-2-6666-6-7-4444-2-2-|--2-777-2-6666----7----7-22222222-|
Eb-0~~--|--0------------4-5----------|--0------------44---55---********-|
                                                     **   **

chorus

eb--0000000000-----0000000000-----0000000000-----0000000000-000000-0000000-|
Bb--0000000000-----0000000000-----0000000000-----0000000000-000000-0000000-|
Gb--1111111111-444-6666666666-444-1111111111-444-6666666666-222222-4444444-|
Db--2222222222-444-6666666666-444-2222222222-444-6666666666-222222-4444444-|
Ab--2222222222-222-4444444444-222-2222222222-222-4444444444-000000-2222222-|
Eb--0000000000--------------------0000000000-------------------------------|

bridge

eb-----------------------------------------------------------------------|
Bb-----------------------------------------------------------------------|
Gb--------------------------5555-5~--66666666-22222222----------44444444-|
Db--66666666-77777777-22222-6666-6~--66666666-22222222-22222222-44444444-|
Ab--66666666-77777777-22222-3333-3~--44444444-00000000-22222222-22222222-|
Eb--44444444-55555555-00000-****-----------------------00000000----------|
    ******** ******** *****

play chorus one time
outro

guitar 1           2x
eb----------------------------------------------------------------|--------|
Bb--5-0-9-0-7-0-5-0-4-0-5-0-7-0-4-0-4-0-5-0-4-0-5-0-7-0-9-0-4-0-5-|---55-4-|
Gb--*-*-*-*-*-*-*-*-*-*-*-*-*-*-*-*-------------------------------|--------|
Db------------(first time play palm mutes,second time-------------|--------|
Ab--------------play it all open)---------------------------------|--------|
Eb----------------------------------------------------------------|--------|

guitar 2
eb----------------------------------------------------------------|--------|
Bb----------------------------------------------------------------|--------|
Gb---------66666666----------22222222-44444444-66666666-----------|---22-4-|
Db--22-22--66666666-22222222-22222222-44444444-66666666-22222222--|---22-4-|
Ab--22-22--44444444-22222222-00000000-22222222-44444444-22222222--|---00-2-|
Eb--00-00-----------00000000----------------------------00000000--|--------|
    ** **

http://mxtabs.net/tab_versions.php?path=Guitar,r,1077,Relient+K,Who+I+Am+Hates+Who+Ive+Been,171179

song: Maintain Consciousness (Track 11)
artist: Relient K
album: mmhmm
label: gotee records

tabbed by Choysauce

I noticed there wasn't a real tab for this song so I tried to attempt it.
It's the first time I've submitted a tab, be gentle ~_^
Someone help me with the acoustic part!
And correct me if i'm wrong please!
Thanx!

Intro
eb----------------------------------------|-------------------------------|
Bb----------------------------------------|-------------------------------|
Gb----------------------------------------|-------------------------------|
Db-10--10/12--12--12--7--7/10--10/9--9/10-|-10--10/12--12--12---7--7--9-9-|
Ab-10--10/12--12--12--7--7/10--10/9--9/10-|-10--10/12--12--12---7--7--9-9-|
Eb-8---8/10--10--10---5--5/8----8/7--7/8--|--8---8/10--10--10---5--5--7-7-|x2

=====

Verse
eb--------------------------------------------------------------------------|
Bb--------------------------------------------------------------------------|
Gb----5--5--5-------7--7--7-----------------5--5--5-------------------------|
Db----5--5--5-------7--7--7-----7--7--7-----5--5--5-------------------------|
Ab----3--3--3-------5--5--5-----7--7--7-----3--3--3-------------------------|
Eb------------------------------5--5--5-------------------------------------|x2

=====
pause
=====

eb--------------------------------------------------------------------------|
Bb--------------------------------------------------------------------------|
Gb----5--5--5-------7--7--7-----------------5--5--5-------------------------|
Db----5--5--5-------7--7--7-----7--7--7-----5--5--5-------------------------|
Ab----3--3--3-------5--5--5-----7--7--7-----3--3--3-------------------------|
Eb------------------------------5--5--5-------------------------------------|

=====
(Repeat Intro)
=====

pre-Chorus (figure out the rythm)
eb----------------------------|---------------------------------------------|
Bb----------------------------|---------------------------------------------|
Gb----5-----5-----5-----9-----|---5-----5-----5--7--14--12------------------|
Db----5--5--5--5--5--5--9--5--|---5--5--5--5--5--7--14--12------------------|
Ab----3--5--3--5--3--5--7--5--|---3--5--3--5--3--5--12--10------------------|
Eb-------3-----3-----3-----3--|------3-----3--------------------------------|


eb------------------------------------------------------------------------|
Bb------------------------------------------------------------------------|
Gb-----5-5---5---7-7---7-------------5-5----------------------------------|
Db-----5-5---5---7-7---7---7-7---7---5-5----------------------------------|
Ab-----3-3---3---5-5---5---7-7---7---3-3----------------------------------|
Eb-------------------------5-5---5----------------------------------------|x2

=====
(Repeat Intro)
=====

Chorus	(figure out rythm)
eb--------------------------------------------------------------------------|
Bb--------------------------------------------------------------------------|
Gb-----5------5-----------5-------------------------------------------------|
Db-----5--5---5---7----5--5--5----3--5--------------------------------------|
Ab-----3--5---3---7----5--3--5----3--5--------------------------------------|
Eb--------3-------5----3-----3----1--3--------------------------------------|
				  *  *

eb-----------------------------------------|---------------------------------|
Bb-----------------------------------------|---------------------------------|
Gb-----------------------------------------|---------------------------------|
Db-10--10/12--12--12--7--7/10--10/9--9/10--|--10---10/12--12--12---7--7--7-7-|
Ab-10--10/12--12--12--7--7/10--10/9--9/10--|--10---10/12--12--12---7--7--7-7-|
Eb--8---8/10--10--10--5--5/8----8/7--7/8---|---8----8/10--10--10---5--5--5-5-|

								  |-----|
=====							 different here

Bridge Solo
(solo guitar)
eb--------------------------------------------------------------------------|
Bb--------------------------------------------------------------------------|
Gb--------------------------------------------------------------------------|
Db---------0-2-------0-2-------0-2--------0-2--------0-2--------0-2---------|
Ab---0-0-3-----0-0-3---------3----------3----------3----------3-------------|
Eb-----------------------2-2--------2-2--------1-1--------1-1---------------|

Rythm Guitar
eb--------------------------------------------------------------------------|
Bb--------------------------------------------------------------------------|
Gb--------------------------------------------------------------------------|
Db--------------------------------------------------------------------------|
Ab--------------------------------------------------------------------------|
Eb--------------------------------------------------------------------------|

=====

Solo Guitar
eb--------------------------------------------------------------------------|
Bb--------------------------------------------------------------------------|
Gb--------0-0-0----4h5p4/2h4p2p0--------------------------------------------|
Db--------------------------------------------------------------------------|
Ab---3-3--------------------------------------------------------------------|
Eb--------------------------------------------------------------------------|


Rythm Guitar
eb--------------------------------------------------------------------------|
Bb--------------------------------------------------------------------------|
Gb--------------------------------------------------------------------------|
Db--------------------------------------------------------------------------|
Ab--------------------------------------------------------------------------|
Eb--------------------------------------------------------------------------|

=====

Solo Guitar
eb--------------------------------------------------------------------------|
Bb--------------------------------------------------------------------------|
Gb--------------------------------------------------------------------------|
Db---------0-2-------0-2-------0-2--------0-2--------0-2--------0-2---------|
Ab---0-0-3-----0-0-3---------3----------3----------3----------3-------------|
Eb-----------------------2-2--------2-2--------1-1--------1-1---------------|

Rythm Guitar
eb--------------------------------------------------------------------------|
Bb--------------------------------------------------------------------------|
Gb----5--5--5---------------------------------------------------------------|
Db----5--5--5-----------5--5--5----------------3--3--3----------------------|
Ab----3--3--3-----------5--5--5----------------3--3--3----------------------|
Eb----------------------3--3--3----------------1--1--1----------------------|

======

Solo Guitar
eb------------6(full bend)--------------------------------------------------|
Bb--------------------------------------------------------------------------|
Gb--------------------------------------------------------------------------|
Db---3-3-3-3----------------------------------------------------------------|
Ab--------------------------------------------------------------------------|
Eb--------------------------------------------------------------------------|

Rythm Guitar
eb--------------------------------------------------------------------------|
Bb--------------------------------------------------------------------------|
Gb---5----------------------------------------------------------------------|
Db---5----------------------------------------------------------------------|
Ab---3----------------------------------------------------------------------|
Eb--------------------------------------------------------------------------|

======

Bridge Cont. (figure out rythm)
eb--------------------------------------------------------------------------|
Bb--------------------------------------------------------------------------|
Gb----5-----------5---------------------------------------------------------|
Db----5---5---3---5---7---5---3~--------------------------------------------|
Ab----3---5---3---3---7---5---3~--------------------------------------------|
Eb--------3---1-------5---3---1~--------------------------------------------|

======
Part of verse (acoustic!) ???
eb--------------------------------------------------------------------------|
Bb--------------------------------------------------------------------------|
Gb--------------------------------------------------------------------------|
Db--------------------------------------------------------------------------|
Ab--------------------------------------------------------------------------|
Eb--------------------------------------------------------------------------|

======
(Repeat Intro)
======

======
(Repeat Chorus) one time
======

Chorus 2nd time!
eb--------------------------------------------------------------------------|
Bb--------------------------------------------------------------------------|
Gb-----5------5-----------5-------------------------------------------------|
Db-----5--5---5---7----5--5--5----3--5--7-----------------------------------|
Ab-----3--5---3---7----5--3--5----3--5--7-----------------------------------|
Eb--------3-------5----3-----3----1--3--5-----------------------------------|
				  *  *  *
======
(End with altered Intro)
======

URL: http://www.christianguitar.org/csong/15486

Song: This Week The Trend (Track 12)
Band: Relient K
Album: Mmhmm
Written By: Matt Thiessen
Copyright 2004 Gotee Records
Tabbed by: Edi K. (email me at diami_11@yahoo.com)

Tuning: Standard (E-A-D-G-B-E)

. = Palm mute

Intro: RIFF (1st guitar)
e|-------|-----------------------------|    e|---------------------------|
B|-------|-----------------------------|    B|--------------4-4----------|
G|-------|--5-5-3-3--------------------| x7 G|-5-5-3-3-5-5-----5-5-3-3-5-|x1
D|--6-6--|----------------------5-5-6--|    D|---------------------------|
A|-------|----------3-3-4-4-6-6--------|    A|---------------------------|
E|-------|-----------------------------|    E|---------------------------|
     ^
ONLY PLAY ONCE


Intro: RHYTHM (2nd guitar) x2
e|--------------------------------------------------------------------|
B|--------------------------------------------------------------------|
G|--------------------------------------------------------------------|
D|--6-6-6-6-6-6-6-6-6-6-6-6-6-6-6-6--6-6-6-6-6-6-6-6-6-6-6-6-6-6-6-6--|
A|--6-6-6-6-6-6-6-6-6-6-6-6-6-6-6-6--6-6-6-6-6-6-6-6-6-6-6-6-6-6-6-6--|
E|--4-4-4-4-4-4-4-4-4-4-4-4-4-4-4-4--4-4-4-4-4-4-4-4-4-4-4-4-4-4-4-4--|

e|--------------------------------------------------------------------|
B|--------------------------------------------------------------------|
G|--6-6-6-6-6-6-6-6-6-6-6-6-6-6-6-6--6-6-6-6-6-6-6-6-6-6-6-6-6-6-6-6--|
D|--6-6-6-6-6-6-6-6-6-6-6-6-6-6-6-6--6-6-6-6-6-6-6-6-6-6-6-6-6-6-6-6--|
A|--4-4-4-4-4-4-4-4-4-4-4-4-4-4-4-4--4-4-4-4-4-4-4-4-4-4-4-4-4-4-4-4--|
E|--------------------------------------------------------------------|


Verse: Both guitars (Comes in on the second part of the verse)
e|--------------------------------------------------------------------|
B|--------------------------------------------------------------------|
G|-----------------------------------6-6-6-6-6-6-6-6-6-6-6-6-6-6-6-6--|
D|--6-6-6-6-6-6-6-6-6-6-6-6-6-6-6-6--6-6-6-6-6-6-6-6-6-6-6-6-6-6-6-6--|
A|--6-6-6-6-6-6-6-6-6-6-6-6-6-6-6-6--4-4-4-4-4-4-4-4-4-4-4-4-4-4-4-4--|
E|--4-4-4-4-4-4-4-4-4-4-4-4-4-4-4-4-----------------------------------|
      . . . . . . . . . . . . . . .  . . . . . . . . . . . . . . . .

e|--------------------------------------------------------------------|
B|--------------------------------------------------------------------|
G|-----------------------------------3-3-3-3-3-3-3-3-8-8-8-8-8-8-8-8--|
D|--3-3-3-3-3-3-3-3-3-3-3-3-3-3-3-3--3-3-3-3-3-3-3-3-8-8-8-8-8-8-8-8--|
A|--3-3-3-3-3-3-3-3-3-3-3-3-3-3-3-3--1-1-1-1-1-1-1-1-6-6-6-6-6-6-6-6--|
E|--1-1-1-1-1-1-1-1-1-1-1-1-1-1-1-1-----------------------------------|
    . . . . . . . . . . . . . . . .  . . . . . . . . . . . . . . . .


Chorus: Both guitars
e|---------------------------------------------------------------------|
B|---------------------------------------------------------------------|
G|-5-5-5-5-5-5-5-5--6-6-6-6-6-6-6-6-------------------8-8-8-8-8-8-8-8--|   x2
D|-5-5-5-5-5-5-5-5--6-6-6-6-6-6-6-6--6-6-6-6-6-6-6-6--8-8-8-8-8-8-8-8--|
A|-3-3-3-3-3-3-3-3--4-4-4-4-4-4-4-4--6-6-6-6-6-6-6-6--6-6-6-6-6-6-6-6--|
E|-----------------------------------4-4-4-4-4-4-4-4-------------------|

e|----------------------------------------------------------------------|
B|----------------------------------------------------------------------|
G|--5-5-5-5-5-5-5-5--6-6-6-6-6-6-6-6-------------------8-8-8-8-8-8-8-8--|
D|--5-5-5-5-5-5-5-5--6-6-6-6-6-6-6-6--6-6-6-6-6-6-6-6--8-8-8-8-8-8-8-8--|
A|--3-3-3-3-3-3-3-3--4-4-4-4-4-4-4-4--6-6-6-6-6-6-6-6--6-6-6-6-6-6-6-6--|
E|------------------------------------4-4-4-4-4-4-4-4-------------------|
    . . . . . . . .  . . . . . . . .  . . . . . . . .  . . . . . . . .

e|-----------------------------------|
B|-----------------------------------|
G|--6-6-6-6-6-6-6-6-6-6-6-6-6-6-6-6--|
D|--6-6-6-6-6-6-6-6-6-6-6-6-6-6-6-6--|
A|--4-4-4-4-4-4-4-4-4-4-4-4-4-4-4-4--|
E|-----------------------------------|
    . . . . . . . . . . . . . . . .


REPEAT VERSE

Interlude: Main riff (1st guitar)
e|-----------------------------|    e|------------------------------------|
B|-----------------------------|    B|--------------4-4-------------------|
G|--5-5-3-3--------------------|   x3    G|--5-5-3-3-5-5-----5-5-3-3-5----| x1
D|----------------------5-5-6--|    D|------------------------------------|
A|----------3-3-4-4-6-6--------|    A|------------------------------------|
E|-----------------------------|    E|------------------------------------|


Interlude: Rhythm (2nd guitar)
e|--------------------------------------------------------------------|
B|--------------------------------------------------------------------|
G|--------------------------------------------------------------------|
D|--6-6-6-6-6-6-6-6-6-6-6-6-6-6-6-6--6-6-6-6-6-6-6-6-6-6-6-6-6-6-6-6--|
A|--6-6-6-6-6-6-6-6-6-6-6-6-6-6-6-6--6-6-6-6-6-6-6-6-6-6-6-6-6-6-6-6--|
E|--4-4-4-4-4-4-4-4-4-4-4-4-4-4-4-4--4-4-4-4-4-4-4-4-4-4-4-4-4-4-4-4--|

e|--------------------------------------------------------------------|
B|--------------------------------------------------------------------|
G|--6-6-6-6-6-6-6-6-6-6-6-6-6-6-6-6--6-6-6-6-6-6-6-6-6-6-6-6-6-6-6-6--|
D|--6-6-6-6-6-6-6-6-6-6-6-6-6-6-6-6--6-6-6-6-6-6-6-6-6-6-6-6-6-6-6-6--|
A|--4-4-4-4-4-4-4-4-4-4-4-4-4-4-4-4--4-4-4-4-4-4-4-4-4-4-4-4-4-4-4-4--|
E|--------------------------------------------------------------------|


REPEAT VERSE
REPEAT CHORUS


Interlude 2: Main riff (1st guitar)
e|------------------------------------------------------------|
B|------------------------------------------------------------|
G|--5-5-3-3---------------------5-5-3-3-----------------------|
D|----------------------5-5-6-----------------------5-5-6-3-3-|
A|----------3-3-4-4-6-6-----------------3-3-4-4-6-6-----------|
E|------------------------------------------------------------|

e|-----------------------------------------------------------------|
B|------4-4-------------------4-4----------------------------------|
G|--5-5-----5-5-6-6-5-5-3-3-5-----5-5-3-3-5-5-3-3-5-3-----6--5-----|
D|----------------------------------------------------5------------|
A|--------------------------------------------------------------6--|
E|-----------------------------------------------------------------|


Interlude 2: Rhythm (2nd guitar)
e|--------------------------------------------------------------------|
B|--------------------------------------------------------------------|
G|-----------------------------------6-6-6-6-6-6-6-6-6-6-6-6-6-6-6-6--|
D|--6-6-6-6-6-6-6-6-6-6-6-6-6-6-6-6--6-6-6-6-6-6-6-6-6-6-6-6-6-6-6-6--|
A|--6-6-6-6-6-6-6-6-6-6-6-6-6-6-6-6--4-4-4-4-4-4-4-4-4-4-4-4-4-4-4-4--|
E|--4-4-4-4-4-4-4-4-4-4-4-4-4-4-4-4-----------------------------------|

e|--------------------------------------------------------------------|
B|--------------------------------------------------------------------|
G|-----------------------------------3-3-3-3-3-3-3-3-8-8-8-8-8-8-8-8--|
D|--3-3-3-3-3-3-3-3-3-3-3-3-3-3-3-3--3-3-3-3-3-3-3-3-8-8-8-8-8-8-8-8--|
A|--3-3-3-3-3-3-3-3-3-3-3-3-3-3-3-3--1-1-1-1-1-1-1-1-6-6-6-6-6-6-6-6--|
E|--1-1-1-1-1-1-1-1-1-1-1-1-1-1-1-1-----------------------------------|


Bridge: Both guitars
e|---------------------------------------------------------------------|
B|---------------------------------------------------------------------|
G|--6-6-6-6-6-6-6-6-------------------3-3-3-3-3-3-3-3------------------| x2
D|--6-6-6-6-6-6-6-6--6-6-6-6-6-6-6-6--3-3-3-3-3-3-3-3--3-3-3-3-3-3-3-3-|
A|--4-4-4-4-4-4-4-4--6-6-6-6-6-6-6-6--1-1-1-1-1-1-1-1--3-3-3-3-3-3-3-3-|
E|-------------------4-4-4-4-4-4-4-4-------------------1-1-1-1-1-1-1-1-|
    . . . . . . . .  . . . . . . . .  . . . . . . . .  . . . . . . . .

e|-----------------------------------------------------------------------|
B|-----------------------------------------------------------------------|
G|--6-6-6-6-6-6-6-6-6-6-6-6-6-6-6-6-6-6-6-6-6-6-6-6-6-6-6-6-6-6-6-6-6-6--|
D|--6-6-6-6-6-6-6-6-6-6-6-6-6-6-6-6-6-6-6-6-6-6-6-6-6-6-6-6-6-6-6-6-6-6--|
A|--4-4-4-4-4-4-4-4-4-4-4-4-4-4-4-4-4-4-4-4-4-4-4-4-4-4-4-4-4-4-4-4-4-4--|
E|-----------------------------------------------------------------------|
    . . . . . . . . . . . . . . . . . . . . . . . . . . . . . . . .


Outro: Both guitars
e|---------------------------|
B|---------------------------|
G|---------------------------|	x3
D|--6-6-6-6-6-6-6-6-6-6-6-6--|
A|--6-6-6-6-6-6-6-6-6-6-6-6--|
E|--4-4-4-4-4-4-4-4-4-4-4-4--|

e|-----------------------------------|
B|-----------------------------------|
G|-----------------------------------|	x5
D|--6-6-6-6-6-6-6-6-6-6-6-6-6-6-6-6--|
A|--6-6-6-6-6-6-6-6-6-6-6-6-6-6-6-6--|
E|--4-4-4-4-4-4-4-4-4-4-4-4-4-4-4-4--|

This is a great song and I hope this was a great tab for you. Please write
a comment or question if you would like to.


Enjoy,

"black guitarist"

URL: http://www.christianguitar.org/csong/15210

Title: Life After Death and Taxes (Failure II)(Track 13)
Album: Mmhmm
Artist: Relient K

Drop C# Tuning - C#,G#,C#,F#,A#,D#


(Intro)
|------------------------------------------|
|------------------------------------------|
|------------------------------------------|
|-x-12-12-12-12--11-11-11--11--11-9-9-9----|
|-x-9--9--9--9---9--9--9---9---9--9-9-9----|
|-x-9--9--9--9---9--9--9---9---9--9-9-9----|

|----------------------------------------|
|----------------------------------------|
|----------------------------------------|
|-12-12-12-12--11-11-11--9---9-x-x--0----|
|-9--9--9--9---9--9--9---9---9-x-x--0----|
|-9--9--9--9---9--9--9---9---9-x-x--0----|

|-------------------------------------------------|
|-------------------------------------------------|
|-------------------------------------------------|
|-5-5-5-5--5-5-5--5--5-5-5-5--7-7-7-7-7-----------|
|-5-5-5-5--5-5-5--5--5-5-5-5--7-7-7-7-7--4p2------|
|-5-5-5-5--5-5-5--5--5-5-5-5--7-7-7-7-7-------0h2-|

(Verse 1)
|--------------------------------------------------------|
|--------------------------------------------------------|
|-4--x-x-x-x-x-x-------------4-4-4-----------------------| (2x)
|-4--x-x-x-x-x-x--5-5-5-5-5--4-4-4--7-7-7-7--5-5-5-5-5-5-|
|-2--x-x-x-x-x-x--5-5-5-5-5--2-2-2--7-7-7-7--5-5-5-5-5-5-|
|-----------------5-5-5-5-5---------7-7-7-7--5-5-5-5-5-5-|

(Pre-Chorus)
|----------------------------------------------------------|
|----------------------------------------------------------|
|-4-4-4-4-4-4-4--------------------------------------------| (2x)
|-4-4-4-4-4-4-4--5-5-5-5-5--0-0-0-0-0--7-7-7-7--9-9--5-5-5-|
|-2-2-2-2-2-2-2--5-5-5-5-5--0-0-0-0-0--7-7-7-7--9-9--5-5-5-|
|----------------5-5-5-5-5--0-0-0-0-0--7-7-7-7--9-9--5-5-5-|

(Fill 1)
|------------------------------------------|
|------------------------------------------|
|------------------------------------------|
|-x-12-12-12-12--11-11-11--11--11-9-9-9----|
|-x-9--9--9--9---9--9--9---9---9--9-9-9----|
|-x-9--9--9--9---9--9--9---9---9--9-9-9----|

|----------------------------------------|
|----------------------------------------|
|----------------------------------------|
|-12-12-12-12--11-11-11--9---9-x-x--0----|
|-9--9--9--9---9--9--9---9---9-x-x--0----|
|-9--9--9--9---9--9--9---9---9-x-x--0----|

|-------------------------------------------------|
|-------------------------------------------------|
|-------------------------------------------------|
|-5-5-5-5--5-5-5--5--5-5-5-5--7-7-7-7-7-----------|
|-5-5-5-5--5-5-5--5--5-5-5-5--7-7-7-7-7--4p2------|
|-5-5-5-5--5-5-5--5--5-5-5-5--7-7-7-7-7-------0h2-|


(Verse 2)
|--------------------------------------------------------|
|--------------------------------------------------------|
|-4--x-x-x-x-x-x-------------4-4-4-----------------------| (2x)
|-4--x-x-x-x-x-x--5-5-5-5-5--4-4-4--7-7-7-7--5-5-5-5-5-5-|
|-2--x-x-x-x-x-x--5-5-5-5-5--2-2-2--7-7-7-7--5-5-5-5-5-5-|
|-----------------5-5-5-5-5---------7-7-7-7--5-5-5-5-5-5-|

(Pre-Chorus 2)
|----------------------------------------------------------|
|----------------------------------------------------------|
|-4-4-4-4-4-4-4--------------------------------------------| (2x)
|-4-4-4-4-4-4-4--5-5-5-5-5--0-0-0-0-0--7-7-7-7--9-9--5-5-5-|
|-2-2-2-2-2-2-2--5-5-5-5-5--0-0-0-0-0--7-7-7-7--9-9--5-5-5-|
|----------------5-5-5-5-5--0-0-0-0-0--7-7-7-7--9-9--5-5-5-|

|-----------------------------------------------------------|
|-----------------------------------------------------------|
|-4-4-4-4-4-4-4---------------------------------------------|
|-4-4-4-4-4-4-4--5-5-5-5-5--0-0-0-0-0--7-7-7-7--7-7-7-7-7-7-|
|-2-2-2-2-2-2-2--5-5-5-5-5--0-0-0-0-0--7-7-7-7--7-7-7-7-7-7-|
|----------------5-5-5-5-5--0-0-0-0-0--7-7-7-7--7-7-7-7-7-7-|
                                                . . . . . .

(Chorus)
|--------------------------------------------------------------------|
|--------------------------------------------------------------------|
|-4--4444--4-4444----------------------------------------------------| (2x)
|-4--4444--4-4444--7--7777--7-7777--5--5555--5-5555--0--0000--4-4444-|
|-2--2222--2-2222--7--7777--7-7777--5--5555--5-5555--0--0000--4-4444-|
|------------------7--7777--7-7777--5--5555--5-5555--0--0000--4-4444-|

|---------------------------------------------------|
|---------------------------------------------------|
|---------------------------------------------------|
|-5-5-5-5-5-5-5-5-5-5-5-5-7-7-7-7-7-7-7-7-7-7-7-7-7-|
|-5-5-5-5-5-5-5-5-5-5-5-5-7-7-7-7-7-7-7-7-7-7-7-7-7-|
|-5-5-5-5-5-5-5-5-5-5-5-5-7-7-7-7-7-7-7-7-7-7-7-7-7-|
  . . . . . . . . . . . . . . . . . . . . . . . . .

(Fill 2)
|------------------------------------------|
|------------------------------------------|
|------------------------------------------|
|-x-12-12-12-12--11-11-11--11--11-9-9-9----|
|-x-9--9--9--9---9--9--9---9---9--9-9-9----|
|-x-9--9--9--9---9--9--9---9---9--9-9-9----|

|----------------------------------------|
|----------------------------------------|
|----------------------------------------|
|-12-12-12-12--11-11-11--9---9-x-x--0----|
|-9--9--9--9---9--9--9---9---9-x-x--0----|
|-9--9--9--9---9--9--9---9---9-x-x--0----|

|----------------------------------------------------|
|----------------------------------------------------|
|----------------------------------------------------|
|-5-5-5-5--5-5-5--5--5-5-5-5--7-7-7-7-7--------------|
|-5-5-5-5--5-5-5--5--5-5-5-5--7-7-7-7-7--4-2-4-------|
|-5-5-5-5--5-5-5--5--5-5-5-5--7-7-7-7-7--------0-2-2-|

|------------------------------------------|
|------------------------------------------|
|------------------------------------------|
|-x-12-12-12-12--11-11-11--11--11-9-9-9----|
|-x-9--9--9--9---9--9--9---9---9--9-9-9----|
|-x-9--9--9--9---9--9--9---9---9--9-9-9----|

|----------------------------------------|
|----------------------------------------|
|----------------------------------------|
|-12-12-12-12--11-11-11--9---9-x-x--0----|
|-9--9--9--9---9--9--9---9---9-x-x--0----|
|-9--9--9--9---9--9--9---9---9-x-x--0----|

|--------------------------------------------------|
|--------------------------------------------------|
|--------------------------------------------------|
|-5-5-5-5--5-5-5--5--5-5-5-5--7-7-7-7-7--2-2-2-2-2-|
|-5-5-5-5--5-5-5--5--5-5-5-5--7-7-7-7-7--2-2-2-2-2-|
|-5-5-5-5--5-5-5--5--5-5-5-5--7-7-7-7-7--2-2-2-2-2-|
                                         . . . . .
(Bridge)
|----------------------------------------------------------------------|
|----------------------------------------------------------------------|
|----------------------------------------------------------------------|
|-222222222222--4444444444444--55555555555555--77777777777777777--5~~~-|
|-222222222222--4444444444444--55555555555555--77777777777777777--5~~~-|
|-222222222222--4444444444444--55555555555555--77777777777777777--5~~~-|
  ............  .............  ..............  .................

(Chorus 2)
|--------------------------------------------------------------------|
|--------------------------------------------------------------------|
|-4--4444--4-4444----------------------------------------------------| (4x)
|-4--4444--4-4444--7--7777--7-7777--5--5555--5-5555--0--0000--4-4444-|
|-2--2222--2-2222--7--7777--7-7777--5--5555--5-5555--0--0000--4-4444-|
|------------------7--7777--7-7777--5--5555--5-5555--0--0000--4-4444-|

|----------------------------------------------------------------|
|----------------------------------------------------------------|
|----------------------------------------------------------2~~~~-|
|-5-5-5-5-5-5-5-5-5-5-5-5--7-7-7-7-7-7-7-7-7-7-7-7-7--4~~--4~~~~-|
|-5-5-5-5-5-5-5-5-5-5-5-5--7-7-7-7-7-7-7-7-7-7-7-7-7--4~~--4~~~~-|
|-5-5-5-5-5-5-5-5-5-5-5-5--7-7-7-7-7-7-7-7-7-7-7-7-7--4~~--------|
  . . . . . . . . . . . .  . . . . . . . . . . . . .

URL: http://www.christianguitar.org/csong/15221

Title: When I Go Down (Track 14)
 Album: Mmhmm
Artist: Relient K


(Intro)
|----------------------------------------------------------------------|
|----------------------------------------------------------------------|
|-----4-----4-----4-----4-----4------------4-----4-----4-----4-----4---|
|---2-----2-----2-----2-----2---2--------2-----2-----2-----2-----2---2-|
|-4-----4-----4-----4-----4-----------0------0-----0-----0-----0-------|
|----------------------------------------------------------------------|

|--------------------------------------------------------------------|
|--------------------------------------------------------------------|
|-----4-----4-----4-----4-----4----------4-----4-----4-----4-----4---|
|---2-----2-----2-----2-----2---2------2-----2-----2-----2-----2---2-|
|-4-----4-----4-----4-----4------------------------------------------|
|------------------------------------0-----0-----0-----0-----0-------|

(Verse 1)
|-------------------------------------------------------------------|
|-------------------------------------------------------------------|
|-------4-----4-----4-----4-----4-------4-----4-----4-----4-----4---|
|-----2-----2-----2-----2-----2-------2-----2-----2-----2-----2---2-|
|---4-----4-----4-----4-----4-------0-----0-----0-----0-----0-------|
|-------------------------------------------------------------------|

|---------------------------------------------------------------------|
|---------------------------------------------------------------------|
|-----4-----4-----4-----4-----4-----------4-----4-----4-----4-----4---| (2x)
|---2-----2-----2-----2-----2---2-------2-----2-----2-----2-----2---2-|
|-4-----4-----4-----4-----4----------0------0-----0-----0-----0-------|
|---------------------------------------------------------------------|

(Pre-Chorus)
|------------------------------------|
|------------------------------------|
|-------2-----2----------4-----4-----| (4x)
|-----0-----0-----0----0-----0-----0-|
|------------------------------------|
|---2-----2-----2----3-----3-----3---|

|------------------------------------------------|
|------------------------------------------------|
|-------1~---------------------------------------|
|-------2~--------2-2-2-2-2--5-5-5-5-5-5-5-5--7~-|
|-------2~--------2-2-2-2-2--5-5-5-5-5-5-5-5--7~-|
|---0-0-0~--------0-0-0-0-0--3-3-3-3-3-3-3-3--5~-|

(Chorus)
D Bm G Asus A
D Bm G Asus A

(Fill 1)
|----------------------------------------------------------------------|
|----------------------------------------------------------------------|
|-----4-----4-----4-----4-----4------------4-----4-----4-----4-----4---|
|---2-----2-----2-----2-----2---2--------2-----2-----2-----2-----2---2-|
|-4-----4-----4-----4-----4-----------0------0-----0-----0-----0-------|
|----------------------------------------------------------------------|

|-------------------------------------|
|-------------------------------------|
|-----4-----4-----4-----4-----4-------|
|---2-----2-----2-----2-----2---2--2~-|
|-4-----4-----4-----4-----4--------2~-|
|----------------------------------0~-|

(Verse 2)
|-0-0-0-0-0--0-0-0-0-0-0-0--0-0-0--0-0-0-0-0--0-0-0-0-0-0-0--0-0-0-|
|-0-0-0-0-0--0-0-0-0-0-0-0--0-0-0--0-0-0-0-0--0-0-0-0-0-0-0--0-0-0-|
|-4-4-4-4-4--4-4-4-4-4-4-4--4-4-4--4-4-4-4-4--4-4-4-4-4-4-4--4-4-4-| (4x)
|-2-2-2-2-2--2-2-2-2-2-2-2--2-2-2--2-2-2-2-2--2-2-2-2-2-2-2--2-2-2-|
|-4-4-4-4-4--4-4-4-4-4-4-4--4-4-4--0-0-0-0-0--0-0-0-0-0-0-0--0-0-0-|
|------------------------------------------------------------------|

(Pre-Chorus 2)
|-------------------------------------|
|-------------------------------------|
|-------2-----2----------4-----4------| (8x)
|-----0-----0-----0----0-----0-----0--|
|-------------------------------------|
|---2-----2-----2----3-----3-----3----|

|---0~------------------------------|
|---0~------------------------------|
|---1~------------------------------|
|---2~--------5-5-5-5-5-5-5-5--7~---|
|---2~--------5-5-5-5-5-5-5-5--7~---|
|---0~--------3-3-3-3-3-3-3-3--5~---|

(Chorus 2)
|------------------------------------------------------------------|
|------------------------------------------------------------------|
|-7-7-7-7-7-7-7-7-7-7-7-7-7-7-7-7--4-4-4-4-4-4-4-4-4-4-4-4-4-4-4-4-|
|-7-7-7-7-7-7-7-7-7-7-7-7-7-7-7-7--4-4-4-4-4-4-4-4-4-4-4-4-4-4-4-4-|
|-5-5-5-5-5-5-5-5-5-5-5-5-5-5-5-5--2-2-2-2-2-2-2-2-2-2-2-2-2-2-2-2-|
|------------------------------------------------------------------|

|------------------------------------------------------------------|
|------------------------------------------------------------------|
|------------------------------------------------------------------| (2x)
|-5-5-5-5-5-5-5-5-5-5-5-5-5-5-5-5--7-7-7-7-7-7-7-7-7-7-7-7-7-7-7-7-|
|-5-5-5-5-5-5-5-5-5-5-5-5-5-5-5-5--7-7-7-7-7-7-7-7-7-7-7-7-7-7-7-7-|
|-3-3-3-3-3-3-3-3-3-3-3-3-3-3-3-3--5-5-5-5-5-5-5-5-5-5-5-5-5-5-5-5-|

(Bridge-Part 1)
[Guitar 1]
D G F#
D G F#
Em Asus A

(Bridge-Part 2)
[Guitar 1]
G D  <---
        |
        |
**Alternate back and forth between these two chords**

[Guitar 2]
|---------------------------------------|
|-----<7>---------------<7>-------------|
|-<5>-----<7>-------<5>-----<7>---------|
|-------------<7>---------------<12>----|
|---------------------------------------|
|---------------------------------------|

|---------------------------------------|
|-----<7>---------------<7>-------------|
|-<5>-----<7>-------<5>-----<7>---------| (7x)
|-------------<7>-----------------------|
|---------------------------------------|
|---------------------------------------|

(Fill 2)
|------------------------------------|
|------------------------------------|
|---7-7-7-7--------------------------| (2x)
|---7-7-7-7--5-5/7-7-7-7-/9\4-4/5~---|
|---5-5-5-5--5-5/7-7-7-7-/9\4-4/5~---|
|------------3-3/5-5-5-5-/7\2-2/3~---|

(Chorus 3)
D Bm G A

(Outro-Part 1)
[Guitar 1]
|----------------------------------------------------------------------|
|----------------------------------------------------------------------|
|-----4-----4-----4-----4-----4------------4-----4-----4-----4-----4---| (2x)
|---2-----2-----2-----2-----2---2--------2-----2-----2-----2-----2---2-|
|-4-----4-----4-----4-----4-----------0------0-----0-----0-----0-------|
|----------------------------------------------------------------------|

(Riff 1)
[Guitar 2]
|---------------|
|---------------|
|-9-8-----------|  ***This is the short little riff they play in the Outro***
|-----9-9/11~~~-|
|---------------|
|---------------|

(Outro-Part 2)
|-------------------------|
|-------------------------|
|-------2-----2------4~~~-|
|-----0-----0-----0--0~~~-|
|--------------------0~~~-|
|---2-----2-----2----3~~~-|

URL: http://www.ultimate-guitar.com/tabs/r/relient_k/when_i_go_down_ver2_tab.htm?1970253098

I hope you enjoyed this compilation or whatever you want to call it. If you liked it please rate it!
comments
print report bad tab
20 comments total. Showing first comments.
0 reply
cgplaya wrote on January 4 2005, 12:00 am

i hope you enjoyed this...i also tabbed out be my escape hope you take a look at it

0 reply
cgplaya wrote on January 9 2005, 12:00 am

comments please?

0 reply
cgplaya wrote on January 24 2005, 12:00 am

thanx for the five-star votes

I want to post or [tab]
guest
You may want to rate the tab now too:
select rating
Please do not post tabs as comments. Select "correction" instead!