Oops, an error
Loading. Please wait.

Mmhmm Tab

ver2
ver2

Album

More versions @911Tabs.com
2,212 views 1 this week
6 commentsread comments
1 2 3 4 5
accurate
x 4
Autoscroll
+/-
esc
set tempo
stop
Contributor
Hey! There's an official Ultimate Guitar app which is ideal
for learning songs when you're away from computer. Get the app
WARNING: You are trying to view
                                    content from Ultimate-Guitar.com
                                    in an unauthorized application,
                                    which is prohibited.

                                    Please use an official Ultimate
                                    Guitar Tabs application for iPhone,
                                    iPad or Android to access legitimate
                                    chords, guitar, bass, and drum tabs
                                    from Ultimate-Guitar.com database.

                                    Type "ultimate guitar tabs" in Apple
                                    App Store's or Android Market's
                                    search to find the application.
1. The One I'm Waiting For
2. Be My Escape
3. High Of 75
4. I So Hate Consequences
5. The Only Thing Worse Than Beating A Dead Horse Is Betting On One
6. My Girl's ex-boyfriend
7. More Than Useless
8. Which To Bury, Us Or The Hatchet
9. Let It all out
10.Who I am Hates Who I've Been
11.Maintain Consciousness
12.This Week The Trend
13.Life After Death & Taxes
14.When I Go Down

I have had fun tabbing all these (except Let It All Out because it is only
piano with background accompaniments of cello, drums, and violins.) and I
know that you'll have fun playing them. Guitars 1 and 2 are both in drop
D/all flatted tuning.  Acoustic parts are standard tuning.  Tabs are
complete with lyrics underneath the correct measure, not the correct
notes/chords in that measure.  thanks! enjoy.

============================================================================
============================================================================

1. The One I'm Waiting For

intro: guitar 1
eb--------------------------------------------------------------->
Bb--------------------------------------------------------------->
Gb-14----14----14----14----14--14-11----11----11----11----11--11->
Db---1212--1212--1212--1212--12-----1212--1212--1212--1212--12--->
Ab--------------------------------------------------------------->
Db--------------------------------------------------------------->
       guitar 1
eb---------------------------------------------------------------->
Bb---------------------------------------------------------------->
Gb-12----12----12----12----12--12-9----9----9----9-14-14-14-14-14->
Db---1212--1212--1212--1212--12----1212-1212-1212--12-12-12-12-12->
Ab---------------------------------------------------------------->
Db---------------------------------------------------------------->
 repeat intro while guitar 2 starts playing

intro: guitar 2
eb-------------------------------------------------------------------->
Bb-------------------------------------------------------------------->
Gb-222---------------7777777777777------------------77777777777------->
Db-222-5555555555555-7777777777777-777-555555555555-77777777777-777xx7>
Ab-000-5555555555555-5555555555555-777-555555555555-55555555555-777xx7>
Db-----5555555555555---------------777-555555555555-------------777xx7>

verse: guitar 2
eb-------------------------------------------------------------------->
Bb-------------------------------------------------------------------->
Gb-----------------------------7xxx---7xxx----7xxx-----------2------24>
Db-5xxx-4-5xxx-455xxx-4-5xxx-457xxx-4-7xxx--457xxx4247775xxx-445xxx-45>
Ab-5xxx--55xxx---5xxx--55xxx---5xxx--55xxx-5--5xxx---7775xxx--55xxx--->
Db-5xxx---5xxx---5xxx---5xxx-------------------------7775xxx---5xxx--->
the way that girl can break a heart its like a work of art and this is the
worst part she knows it and she's so confident

       guitar 2
eb------------------------------------------------------->
Bb------------------------------------------------------->
Gb------2-------24-7xxx-2--7xxx--24-7xxx-2--------------->
Db-5xxx-44-5xxx-45-7xxx-44-7xxx-445-7xxx-44-777-5~~--7~~->
Ab-5xxx--5-5xxx----5xxx--5-5xxx-5---5xxx--5-777-5~~--7~~->
Db-5xxx----5xxx-----------------------------777-5~~--7~~->
that she's what everybody wants but nobody wants her to know that

pre-chorus: guitar 2
eb-------------------------------------------------------------------->
Bb--------------------------3~~-----------------------------3~~------->
Gb-7-7-7-777-7-7-777-7-7-77--------7-7-7-777-7-7-777-7-7-77----------->
Db-9-9-9-997-7-7-775-5-5-55-2~~----9-9-9-997-7-7-775-5-5-55-2~~------->
Ab-------------------------------------------------------------------->
Db-------------------------------------------------------------------->
so fall back on all of your premonitions and just learn to listen to those
that have more wisdom than you and just stop putting so much stock in all
of this stuff live your life for those that you love

bridge: guitar 3? (acoustic sounding) (also, standard tuning)
e------------------------------------------------------------------>
B------------------------------------------------------------------>
G------------------------------------------------------------------>
D--------3----------3-----------3----------3----------------------->
A--44-64--4~~-44-64--4~~--44-64--4~~-44-64--4~~-------------------->
E-2--4--6----2--4--6-----2--4--6----2--4--6------------------------>
                     and I'm still waiting for you to be the one I'm
waiting for

  guitar 2
eb-------------------------------------------------------------------->
Bb-------------------------------------------------------------------->
Gb------------7777777777-------------------777777777777--------------->
Db-5555555555/7777777777-777-5555555555555/777777777777-777----------->
Ab-5555555555/5555555555-777-5555555555555/555555555555-777----------->
Db-5555555555/-----------777-5555555555555/-------------777----------->
the way that girl can turn a head well she is such a threat but don't ever
forget she knows it and she's got it all, all figured out she wont let you
doubt she knows it

  guitar 2
eb--------------------------------------------------------------|
Bb--------------------------------------------------------------|
Gb------------------------------7-7-7-7---------4-4-4-4---------|
Db-55-4-55-4-77-55-4-55-4-77~~--7-7-7-7-5-5-5-5-4-4-4-4-5-5-5-5-|
Ab-55---55---77-55---55---77~~--5-5-5-5-5-5-5-5-2-2-2-2-5-5-5-5-|
Db-55---55---77-55---55---77~~----------5-5-5-5---------5-5-5-5-|
                                I'm still waiting for you to be the one I'm
waiting for I'm still waiting for you to be the one I'm waiting for

  guitar 1
eb--------------------------------------------------------------->
Bb--------------------------------------------------------------->
Gb-14----14----14----14----14--14-11----11----11----11----11--11->
Db---1212--1212--1212--1212--12-----1212--1212--1212--1212--12--->
Ab--------------------------------------------------------------->
Db--------------------------------------------------------------->

  guitar 2
eb--------------------------------------------------------------->
Bb--------------------------------------------------------------->
Gb--------------------------------------------------------------->
Db-2~~----------------------------------------------------------->
Ab-2~~----------------------------------------------------------->
Db-2~~----------------------------------------------------------->

  guitar 1
eb---------------------------------------------------->
Bb---------------------------------------------------->
Gb-12----12----12----12----12--12--12-12-11----------->
Db---1212--1212--1212--1212--12----------------------->
Ab------------------------------------------12-------->
Db---------------------------------------------------->

eb---------------------------------------------------->
Bb---------------------------------------------------->
Gb---------------------------------------------------->
Db-5~~------------------------------------------------>
Ab-5~~------------------------------------------------>
Db-5~~------------------------------------------------>

  guitar 1
eb--------------------------------------------------------------|
Bb--------------------------3~~-----------------------------3~~-|
Gb-7-7-7-777-7-7-777-7-7-77--------7-7-7-777-7-7-777-7-7-77-----|
Db-9-9-9-997-7-7-775-5-5-55-2~~----9-9-9-997-7-7-775-5-5-55-2~~-|
Ab--------------------------------------------------------------|
Db--------------------------------------------------------------|

  guitar 2
eb-------------------------------------------------------------------->
Bb-------------------------------------------------------------------->
Gb-------------------------------------------------------------------->
Db--9-9-9-997-7-7-775-5-5-55-2~~---9-9-9-997-7-7-775-5-5-55-2~~--5~~-->
Ab--9-9-9-997-7-7-775-5-5-55-2~~---9-9-9-997-7-7-775-5-5-55-2~~--5~~-->
Db--9-9-9-997-7-7-775-5-5-55-2~~---9-9-9-997-7-7-775-5-5-55-2~~--5~~-->
so fall back on all of your premonitions and just learn to listen to those
that have more wisdom than you and just stop putting so much stock in all
of this stuff live your life for those that you love

outro: guitar 2
eb-------------------------------------------------------------------->
Bb-------------------------------------------------------------------->
Gb-7-7-7-7---------4-4-2-2-------------------------------------------->
Db-7-7-7-7-5-5-5-5-4-4-2-2-5-5-5-5-0-0-0-0-5-5-5-5-2-2-2-2-5~~-------->
Ab-5-5-5-5-5-5-5-5-2-2-0-0-5-5-5-5-0-0-0-0-5-5-5-5-2-2-2-2-5~~-------->
Db---------5-5-5-5---------5-5-5-5-0-0-0-0-5-5-5-5-2-2-2-2-5~~-------->
I'm still waiting for you to be the one I'm waiting for I'm still waiting
for you to be the one I'm waiting for

something tells me this is gonna make sense something tells me it's gonna
take patience something tells me that this will all work out in the end

                                                      tabbed by: aquaknight3
============================================================================
============================================================================

2. Be My Escape

Intro: guitar 1
eb---------------------------------->
Bb-11-11-11-111111--11-11-11-111111->
Gb-12-12-12-121212--12-12-12-121212->        repeat 4x
Db-12-12-12-121212--12-12-12-121212->  then guitar 2 comes in
Ab-10-10-10-101010--10-10-10-101010-> then repeat 4 more times
Db---------------------------------->

intro: guitar 2's part
eb----------------------------------------------------------------->
Bb----------------------------------------------------------------->
Gb-88888888888888888888---------------------888888888888888888888-->
Db-88888888888888888888-5555555555555555555-888888888888888888888-->
Ab-66666666666666666666-5555555555555555555-666666666666666666666-->
Db----------------------5555555555555555555------------------------>

guitar 1
eb------------------------------------------------------------------>
Bb-11--11--10--66--11--11--10--66--11--11--10--66--11--11--10--66--->
Gb-12--12--12--77--12--12--12--77--12--12--12--77--12--12--12--77--->
Db------------------------------------------------------------------>
Ab------------------------------------------------------------------>
Db------------------------------------------------------------------>

guitar 2
eb------------------------------------------------------------------>
Bb---11--11--11--11--11--11--11--11--11--11--11--11--11--11--11--11->
Gb---12--12--12--12--12--12--12--12--12--12--12--12--12--12--12--12->
Db------------------------------------------------------------------>
Ab------------------------------------------------------------------>
Db------------------------------------------------------------------>

Verse 1: guitar 2 (first part is piano)
I've given up on given up slowly I'm blending in so you wont even know me
apart from this whole world that shares my fate

eb------------------------------------>
Bb------------------------------------>
Gb--------8-8-8-12-10----7-8~~-------->
Db-8--10--8-8-8-12-10--8-7-8~~-------->
Ab-8--10--6-6-6-10-8---8-5-6~~-------->
Db-8--10---------------8-------------->
and this one last bullet you mention is my one last shot at redemption cuz
I know to live you must give your life away

pre-chorus: guitar 2
eb-------------------------------------------------------------------->
Bb-------------------------------------------------------------------->
Gb-1212-88----1010-1212-88----1010-1212-88----1010----------88-1010--->
Db-1212-88-88-1010-1212-88-88-1010-1212-88-88-1010-10101010-88-1010--->
Ab-1010-66-88-8-8--1010-66-88-8-8--1010-66-88-8-8--10101010-66-8-8---->
Db---------88--------------88--------------88------10101010----------->
cuz I've been housing all this doubt and insecurity and I've been locked
inside that house all the while you hold the key and I've been dying to get
out that might be the death of me and even though there's no way of knowing
where to go promise I'm going because

chorus 1: guitar 2
eb------------------------------------------------->
Bb------------------------------------------------->
Gb----10--8-10----10--8-10----10-8-10-12--10-8--10->
Db-8--10--8-10-8--10--8-10-8--10-8-10-12--10-8--10->
Ab-8--8---6-8--8--8---6-8--8--8--6-8--10--8--6--8-->
Db-8-----------8-----------8----------------------->
I gotta get out of here I'm stuck inside this rut that I fell into by
mistake I gotta get out of here and I'm begging you begging you begging you
to be my escape

Verse 2: guitar 2
eb----------------------------------------------------------->
Bb----------------------------------------------------------->
Gb--------8-8-8-12-10----7-8~~--------8-8-8-12-10----7-8~~--->
Db-8--10--8-8-8-12-10--8-7-8~~-8--10--8-8-8-12-10--8-7-8~~--->
Ab-8--10--6-6-6-10-8---8-5-6~~-8--10--6-6-6-10-8---8-5-6~~--->
Db-8--10---------------8-------8--10---------------8--------->
I'm giving up on doing this alone now cuz I've failed and I'm ready to be
shown how He's told me the way and I'm trying to get there and this life
sentence that I'm serving I admit that I'm every bit deserving but the
beauty of grace is that it makes life not fair

repeat pre-chorus

chorus 2: guitar 2
eb------------------------------------------------->
Bb------------------------------------------------->
Gb----10--8-10----10--8-10----10-8-10-12--10-8--10->
Db-8--10--8-10-8--10--8-10-8--10-8-10-12--10-8--10->
Ab-8--8---6-8--8--8---6-8--8--8--6-8--10--8--6--8-->
Db-8-----------8-----------8----------------------->
I gotta get out of here cuz I'm afraid that this complacency is something I
can't shake yeah, I gotta get out of here and I'm begging you, I'm begging
you, I'm begging you to be my escape

bridge: guitar 2
eb-------------------------------------->
Bb-11-11-11-11111111--10-10-10-10101010->
Gb-12-12-12-12121212--12-12-12-12121212-> repeat 4x
Db-12-12-12-12121212--12-12-12-12121212->
Ab-10-10-10-10101010--10-10-10-10101010->
Db-------------------------------------->

I am a hostage to my own humanity self-detained and forced to live in this
mess I've made and all I'm asking is for you to do what you can with me but
I can't ask you to give what you already gave

repeat pre-chorus

repeat chorus 1

outro is only piano
I fought you for so long I should have let you in oh, how we regret those
things we do and all I was trying to do was save my own skin oh, but so
were you, so were you

                                                      tabbed by: aquaknight3
============================================================================
============================================================================

3. High Of 75

intro: (acoustic)
eb----------------------------------------------------------->
Bb----------------------------------------------------------->
Gb----------------------------------------------------------->
Db-(2-2-221-1-112-2-221-1-11)2-2-2-221-1-112-2-2-221-1-112~~->
Ab-(2-2-222-2-222-2-222-2-22)2-2-2-222-2-222-2-2-222-2-222~~->
Db-(2-2-222-2-220-0-000-0-00)4-4-4-444-4-442-2-2-222-2-220~~->
         repeat this^

intro cont'd: guitar 1
eb---------------------------------------------------------------->
Bb-(6-6-665-5-558-8-885-5-55)6-6-6-665-5-558-8-8-885-5-55666666--->
Gb-(5-5-555-5-555-5-555-5-55)5-5-5-555-5-555-5-5-555-5-55555555--->
Db---------------------------------------------------------------->
Ab---------------------------------------------------------------->
Db---------------------------------------------------------------->
         repeat this^    only guitars 1 and 2 are playing here

intro cont'd: guitar 2
eb---------------------------------------------------------------->
Bb---------------------------------------------------------------->
Gb---------------------------------------------------------------->
Db-101010101010-333333333333-77777777777777-5555555555555-3333333->
Ab-101010101010-333333333333-77777777777777-5555555555555-3333333->
Db-101010101010-333333333333-77777777777777-5555555555555-3333333->

verse 1: (same as the first intro, just softer)
we were talking together I said "what's up with this weather?" don't know
whether or not how sad I just got was on my own volition or if I'm just
missing the sun

pre-chorus:
eb------------------------------------------------------->
Bb------------------------------------------------------->
Gb-xxxxxxxxxx55xxxxxxxxx1010xxxxxxxx--------------------->
Db-xxxxxxxxxx55xxxxxxxxx1010xxxxxxxx77777-55555-3333333-->
Ab-xxxxxxxxxx33xxxxxxxxx8-8-xxxxxxxx77777-55555-3333333-->
Db----------------------------------77777-55555-3333333-->
and tomorrow I know will be rainy at best and the forecast I know is that
I'll be depressed but I'll wait outside hoping that I'll catch sight of the
sun

eb-------------------------------------------------------------------->
Bb-------------------------------------------------------------------->
Gb-------------------------------------------------------------------->
Db-33-55-22-33-3xxxx5xxxx2xxxx3xxxx-3-3-355-522-2333-3xxx5xxx2xxx3xxx->
Ab-33-55-22-33-3xxxx5xxxx2xxxx3xxxx-3-3-355-522-2333-3xxx5xxx2xxx3xxx->
Db-33-55-22-33-3xxxx5xxxx2xxxx3xxxx-3-3-355-522-2333-3xxx5xxx2xxx3xxx->
because on and off the clouds have fought for control over the sky and
lately the weather has been so bi-polar and consequently so have I

chorus 1: all piano
but now I'm sunny with a high of 75 since you took my heavy heart and made
it light and its funny how you find you enjoy your life when you're happy
to be alive

guitar 1
eb--------------------------------------------------------->
Bb-6-6-665-5-558-8-885-5-55-6-6-6-665-5-558-8-8-885-5-55--->
Gb-5-5-555-5-555-5-555-5-55-5-5-5-555-5-555-5-5-555-5-55--->
Db--------------------------------------------------------->
Ab--------------------------------------------------------->
Db--------------------------------------------------------->

guitar 2
eb--------------------------------------------------------->
Bb--------------------------6~~---------------------------->
Gb-5~~----------------------5~~---------------------------->
Db-5~~----------------------3~~-----------3~~-------------->
Ab-3~~------------------------------------3~~-------------->
Db----------------------------------------3~~-------------->

verse 2 is same as intro cont'd
and the temperature is freezing and then after dark there's a cold from
sweeping in over my heart and we might break up if i dont wake up to the sun

eb-------------------------------------------------------------------->
Bb-------------------------------------------------------------------->
Gb-------------------------------------------------------------------->
Db-33-55-22-33-3xxxx5xxxx2xxxx3xxxx-3-3-355-522-2333-3xxx5xxx2xxx3xxx->
Ab-33-55-22-33-3xxxx5xxxx2xxxx3xxxx-3-3-355-522-2333-3xxx5xxx2xxx3xxx->
Db-33-55-22-33-3xxxx5xxxx2xxxx3xxxx-3-3-355-522-2333-3xxx5xxx2xxx3xxx->
because on and off the clouds have fought for control over the sky and
lately the weather has been so bi-polar and consequently so have I

chorus 2: all piano
but now I'm sunny with a high of 75 since you took my heavy heart and made
it light and its funny how you find you enjoy your life when you're happy
to be alive

chorus 3: guitar 2
eb----------------------------------------------------|
Bb----------------------------------------------------|
Gb-555----------------------------555-----------------|
Db-555-333-777-555-222-333333-555-555-333-777-555-3-5-|
Ab-333-333-777-555-222-333333-555-333-333-777-555-3-5-|
Db-----333-777-555-222-333333-555-----333-777-555-3-5-|
but now I'm sunny with a high of 75 since you took my heavy heart and made
it light and its funny how you find you enjoy your life when you're happy
to be alive
                                                      tabbed by: aquaknight3
============================================================================
============================================================================

4. I So Hate Consequences

Intro: guitar 2
eb-5-5-5-5-5-5-5-5-5-5-5---------------------------------------------->
Bb-------------------------------------------------------------------->
Gb-2-2-2-2-2-2-2-2-2-2-244444444444477777777777444444444-------------->
Db----------------------444444444444777777777774444444445555555577777->
Ab----------------------222222222222555555555552222222225555555577777->
Db------------------------------------------------------5555555577777->
am good, good, good to go am good, good, good to go I got to get away get
away from all of my mistakes am good, good, good to go am good, good, good
to go I got to get away get away from all of my mistakes

Guitar 1
eb--------------------------------------------------------------------->
Bb----------------------------------------------------3322332233223322->
Gb--------------------------------------------------------------------->
Db--------------------------------------------------------------------->
Ab--------------------------------------------------------------------->
Db--------------------------------------------------------------------->

Guitar 1
eb--------------------------------------------------------------------->
Bb-3322332------------------------------------------------------------->
Gb--------------------------------------------------------------------->
Db--------------------------------------------------------------------->
Ab--------------------------------------------------------------------->
Db--------------------------------------------------------------------->

guitar 1
eb-------------------------------------------------------------------->
Bb-------------------------------------------------------------------->
Gb--------4xxxxx7xxxxx------------2xxxxx444444777777----------2222---->
Db--------4xxxxx7xxxxx5xxxxx0xxxxx2xxxxx44444477777755555500002222---->
Ab--------2xxxxx5xxxxx5xxxxx0xxxxx0xxxxx22222255555555555500000000---->
Db--------------------5xxxxx0xxxxx------------------5555550000-------->
          so here I sit looking at the traffic lights the red extinguishes
the hope that the green ignites I wanna run away I wanna ditch my life cuz
all of my mistakes keep me awake at night and after all of my alibis desert
me I just want to get by I dont want nothing to hurt me I had no idea where
my head was at but if my heart says I'm sorry can we leave it at that

                Chorus:
eb-------------------------------------------------------------------->
Bb-------------------------------------------------------------------->
Gb-4-4-2xx----------777744442222----777744442222----777744442222------>
Db-4-4-2xx-0~~--5555777744442222555577774444222255557777444422225xxxx->
Ab-2-2-0xx-0~~--5555555522220000555555552222000055555555222200005xxxx->
Db---------0~~--5555------------5555------------5555------------5xxxx->
because I just want for all of this to end    and I so hate consequences
running from you is what my best defense is consequences God, dont make me
face up to this and I so hate consequences running from you is what my best
defense is cuz I know that I let you down

eb-------------------------------------------------------------------->
Bb-------------------------------------------------------------------->
Gb----------------------444444444444---------------------------------->
Db-7xxxxxxx0000000000000444444444444555555555555777777---------------->
Ab-7xxxxxxx0000000000000222222222222555555555555777777---------------->
Db-7xxxxxxx0000000000000------------555555555555777777---------------->
and I dont want to deal with that  am good, good, good to go am good, good,
good to go I got to get away get away from all of my mistakes

verse 2:
eb------------------------------------------------------------->
Bb------------------------------------------------------------->
Gb-44444-77777-------------22222------------------------------->
Db-44444-77777-55555-00000-22222--------------------------0~~-->
Ab-22222-55555-55555-00000-00000--------------------------0~~-->
Db-------------55555-00000--------------------------------0~~-->
it just now hit me this is more than just a set back and when you spelled
it out, well, I guess I didnt get that and every trace of momentum is gone
and this isnt turning out the way I want and after all of my alibis desert
me I just wanna get by dont want nothing to hurt me I had no idea where my
head was at but if my heart says I'm sorry can we leave it at that because
I just want for all of this to end

repeat chorus

bridge:
eb-------------------------------------------------------------------->
Bb-------------------------------------------------------------------->
Gb-4~~---------------------------------------------------------------->
Db-4~~--5~~---0~~-7~~-555-777-999-999-555-777-999-999-5~~0~~5xxx0~~--->
Ab-2~~--5~~---0~~-7~~-555-777-999-999-555-777-999-999-5~~0~~5xxx0~~--->
Db------5~~---0~~-7~~-555-777-999-999-555-777-999-999-5~~0~~5xxx0~~--->
and I spent all last night (tearing down) every stop light (and stop sign in
this town) and I think there might (be no way to stop me now) I'll get away
despite (the fact I'm so weighed down) all of my escapes have been exhausted
I thought I had a way but then I lost it And my resistance was once much
stronger and I know I cant go on like this much longer

outro:  first part is piano:
when I got tired of running from you I stopped right there to catch my
breath there Your words they caught my ears you said "I miss you son, come
home." and my sins they watched me leave and in my heart I so believe the
love you felt for me was mine the love I'd wished for all this

guitar 2
eb----------------------------------(14)----------------------------------->
Bb------------------------------------------------------------------------->
Gb------------------------------------------------------------------------->
Db-2xxxxxxxxxx9xxxxx7xxxxx5~~------------555-777-999-999-5~~-0~~-5xxx-0~~-->
Ab-2xxxxxxxxxx9xxxxx7xxxxx5~~------------555-777-999-999-5~~-0~~-5xxx-0~~-->
Db-2xxxxxxxxxx9xxxxx7xxxxx5~~------------555-777-999-999-5~~-0~~-5xxx-0~~-->
time...(and when the doors where closed) I heard no "I told you so"s I said
the words I knew you knew: oh God oh God I needed you, God all this time I
needed you, I needed you and I so hate consequences and running from you is
what my best defense is... I hate these consequences cuz I know that I let
you down and I dont wanna deal with that
                                                      tabbed by: aquaknight3
============================================================================
============================================================================

5. The Only Thing Worse Than Beating A Dead Horse Is Betting On One

intro: guitar 1           guitar 2
eb-------------------------------------------------------------------->
Bb-------------------------------------------------------------------->
Gb-------------1/222-1/222---7-2-4---7-2-4xx---7-2-4---7-2-4---------->
Db-2/444-2/444-2/444-2/444-4-7-2-4-4-7-2-4xx-4-7-2-4-4-7-2-4---------->
Ab-------------------------4-5-0-2-4-5-0-2xx-4-5-0-2-4-5-0-2---------->
Db-------------------------4-------4---------4-------4---------------->

verse: guitar 2
eb-------------------------------------------------------------------->
Bb---------------------------------333---55555------------------------>
Gb---7-2-4---7-2-4---7-2-4---7-2-4-222-6-44444----(then piano)-------->
Db-4-7-2-4-4-7-2-4-4-7-2-4-4-7-2-4-000-6-22222------------------------>
Ab-4-5-0-2-4-5-0-2-4-5-0-2-4-5-0-2-----4------------------------------>
Db-4-------4-------4-------4------------------------------------------>
Just listen to the politician wishing his position wasn't missing
everything his heart would like to say and a constant in the constitution
is that there cant be one solution it'd be so far from the truth and we
would hate it anyway opinions are immunity to being told you're wrong paper
rock and scissors they all have their pros and cons

eb----------------------------------------222222-000000-444444-222222->
Bb-3333-----------4444-3333---------------333333-222222-555555-444444->
Gb-2222-2222------3333-2222-2222-4---3xxx-222222-222222-444444-444444->
Db-0000-2222-2222-1111-0000-2222-4-2-3xxx-000000-222222-222222-444444->
Ab------0000-2222-----------0000-2-2-1xxx-000000-000000-222222-222222->
Db-----------2222------------------2---------------------------------->
and all of us we will endure  just like we always have  but you just can't
be too sure  how long this will last  cause we control the chaos in the
back of our minds  our problems seem so small

eb-------------------------------------------------------------------->
Bb-------------------------------------------------------------------->
Gb-77-2-77-2-44444444-4~~--------------------------------------------->
Db-77-2-77-2-44444444-4~~-2~~-4~~------------------------------------->
Ab-55-0-55-0-22222222-2~~-2~~-4~~------------------------------------->
Db------------------------2~~-4~~------------------------------------->
but they grow on us  like gravity  but gravity still makes  us  fall

                                                      tabbed by: aquaknight3
============================================================================
============================================================================

6. My Girl's ex-boyfriend

capo on first fret (or you could just drop d tune it w/standard tuning)
     \/    1     2     3    4    5    6    7    8    9   10  11  12
eb|-    -|-----|-----|----|----|----|----|----|----|----|---|---|---|->
Bb|-    -|-----|-----|----|----|----|----|----|----|----|---|-O-|---|->
Gb|-    -|-----|-----|----|----|----|----|----|----|----|---|---|---|->
Db|-    -|-----|--O--|----|--O-|----|--O-|----|--O-|----|---|---|---|->
Ab|-    -|-----|-----|----|----|----|----|----|----|----|---|-O-|---|->
Db|-    -|-----|-----|----|----|----|----|----|----|----|---|---|---|->

intro: guitar 1
eb-33-0-0---------33-0-0-----00-33-0-0---------------->
Bb-----3-0-1-3-11-----3-0-1-3-------3-0-1-3-111~~-3~~->
Gb---------------------------------------------------->
Db---------------------------------------------------->
Ab---------------------------------------------------->
Db---------------------------------------------------->

Intro: guitar 2
eb---------------------------------------------------->
Bb---------------------------------------------------->
Gb-------5~~------------5~~-----------5~~------------->
Db-3~~---5~~-5xxx-3~~---5~~5xxx-3~~---5~~-5-3xxx-5xxx->
Ab-3~~---3~~-5xxx-3~~---3~~5xxx-3~~---3~~-5-3xxx-5xxx->
Db-3~~-------5xxx-3~~------5xxx-3~~-------5-3xxx-5xxx->

Verse:  guitar 2
eb------------------------------------------------>
Bb------------------------------------------------>
Gb------------5xxxx------------------5xxxx--------> repeat this
Db-3xxxx3xxxx-5xxxx-5xxxx-3xxxx3xxxx-5xxxx-5-xxxx->
Ab-3xxxx3xxxx-3xxxx-5xxxx-3xxxx3xxxx-3xxxx-5-xxxx->
Db—3xxxx3xxxx-------5xxxx-3xxxx3xxxx-------5-xxxx->
when he was seeing her you could see he had his doubts and now he's missing
her because he knows he's missing out and now its haunting him her memory's
like a ghost and he's so terrified cuz no one else even comes close

Chorus: guitar 2
eb------------------------------------------>
Bb------------------------------------------>
Gb-----555-----555---------555-77-22----5~~->
Db-333/555-333/555-5xx-333-555-77-22-33-5~~->
Ab-333/333-333/333-5xx-333-333-55-00-33-3~~->
Db-333/----333/----5xx-333-----------33----->
he's the guy that you should feel sorry for he had the world but he thought
that he wanted more I owe it all to the mistake he made back then I owe it
all the my girl's ex-boyfriend

verse 2: guitar 2
eb------------------------------------------------->
Bb------------------------------------------------->
Gb------------5xxxx-------------------5xxxx--------> repeat this
Db-3xxxx3xxxx-5xxxx-5-xxxx-3xxxx3xxxx-5xxxx-5-xxxx->
Ab-3xxxx3xxxx-3xxxx-5-xxxx-3xxxx3xxxx-3xxxx-5-xxxx->
Db—3xxxx3xxxx-------5-xxxx-3xxxx3xxxx-------5-xxxx->
so then along comes me this undeserving mess who would believe that my life
would be so blessed two years ago when he left all that debris who would've
known he would leave everything I need

Chorus: piano and guitar 2
eb------------------------------------------->
Bb------------------------------------------->
Gb-------------------------5xxx-7x-2x----5~~->
Db---(piano)---------3-xxx-5xxx-7x-2x-3x-5~~->
Ab-------------------3-xxx-3xxx-5x-0x-3x-3~~->
Db-------------------3-xxx------------3x----->
he's the guy that you should feel sorry for he had the world but he thought
that he wanted more I owe it all to the mistake he made back then I owe it
all the my girl's ex-boyfriend

bridge: guitar 2
eb----------------------------------------------------->
Bb----------------------------------------------------->
Gb------55-----------------------5555-22-----------5~~->
Db-3333-55-5xx-3333-77-5xxx-3333-5555-22-55-7-3333-5~~->
Ab-3333-33-5xx-3333-77-5xxx-3333-3333-00-55-7-3333-3~~->
Db-3333----5xx-3333-77-5xxx-3333---------55-7-3333----->
if it wasn't for him I would still be searching if it wasn't for him I
wouldn't know my best friend if it wasn't for him he would be able to see
that if it wasn't for him he'd be as happy as me

Repeat intro then:  guitar 2
eb-------------------------------------------------1~~---->
Bb-------------------------------------------------x------>
Gb----------------------------------2xxx-----------x------>
Db--3~~--2-5~~-3~~-2-5~~-3-xxx-5xxx-2xxx-5xxx-3xxx-3~~---->
Ab--3~~--2-5~~-3~~-2-5~~-3-xxx-5xxx-0xxx-5xxx-3xxx-3~~---->
Db--3~~--2-5~~-3~~-2-5~~-3-xxx-5xxx------5xxx-3xxx-3~~---->
when she and I settle down you can bet that he is gonna have to settle for
less he's someone I would hate to be I got the girl and he's left with just
the memory

Repeat chorus and the outro is the voices only

he's the guy that you should feel sorry for he had the world but he thought
that he wanted more I owe it all to the mistake he made back then I owe it
all the my girl's ex-boyfriend
if it wasn't for him I would still be searching if it wasn't for him I
wouldn't know my best friend if it wasn't for him he would be able to see
that if it wasn't for him he'd be as happy as me

                                                      tabbed by: aquaknight3
============================================================================
============================================================================

7. More Than Useless

intro: guitar 1
eb--000-000-000-0-00-000-000-000-0-00------------>
Bb--444-555-000-2-44-444-555-000-2-44------------>
Gb----------------------------------------------->  repeat 3x
Db----------------------------------------------->
Ab----------------------------------------------->
Eb----------------------------------------------->

guitar 2
eb---------------------------------------------------->
Bb---------------------------------------------------->
Gb-6666-6-----------------6666-6-----------------9~~-->
Db-6666-67777-7-2222-2222-6666-67777-7-2222-2222-9~~-->
Ab-4444-47777-7-2222-2222-4444-47777-7-2222-2222-7~~-->
Db-------7777-7-2222-2222-------7777-7-2222-2222------>

guitar 3
eb------------------------------------------------>
Bb------------------------------------------------>
Gb------------------------4-6--4-7-6--4-6-6-66666->
Db------------------------------------------------>
Ab------------------------------------------------>
Eb------------------------------------------------>

verse 1: guitar 2
eb------------------------------------------------------>
Bb------------------------------------------------------>
Gb-9xxx-6xxx-----------6xxx-----------------66-6622-244->
Db-9xxx-6xxx-7xxx-2xxx-6xxx-7xxx--22-2222-2266-6622-244-> repeat non-
Ab-7xxx-4xxx-7xxx-2xxx-4xxx-7xxx--22-2222-2244-4400-022-> muted part
Db-----------7xxx-2xxx------7xxx--22-2222-22------------>
I feel like I would like to be somewhere else doing something that matters
and I'll admit here while I sit here my mind wastes away and my doubts
start to gather what's the purpose? feels worthless so unwanted like I've
lost all my value I cant find it not in the least bit and I'm so scared so
scared that I'll fail you

pre-chorus: guitar 2
eb---------------------------------------------------------->
Bb---------------------------------------------------------->
Gb-9xxx-8xxx-6xxx------9xxx-8xxx-6xxx------5-5-5-5-6-6-4-4-->
Db-9xxx-9xxx-6xxx-7xxx-9xxx-9xxx-6xxx-7xxx-6-6-6-6-6-6-4-4-->
Ab-7xxx-6xxx-4xxx-7xxx-7xxx-6xxx-4xxx-7xxx-3-3-3-3-4-4-2-2-->
Db----------------7xxx----------------7xxx------------------>
and sometimes I think that I'm not any good at all and sometimes I wonder
why, why I'm even here at all but then you assure me

chorus: guitar 2
eb------------------------------------------------------------>
Bb------------------------------------------------------------>
Gb------------------------------66-66-66---------------------->
Db-22-22-2-------77-77-77-------66-66-66-------77-77--7~~----->
Ab-22-22-2-------77-77-77-------44-44-44-------77-77--7~~----->
Db-22-22-2-------77-77-77----------------------77-77--7~~----->

chorus: guitar 1
eb------------------------------------------------------------>
Bb------------------------------------------------------------>
Gb------------------------------------------------------------>
Db----------6--------------6-------------6------------7~~----->
Ab---------7-6-7----------7-6-7---------6-6-7---------7~~----->
Db----------------------------------------------------7~~----->
I'm a little more than useless and when I think that I cant do this you
promise me that I'll get through this and do something right do something
right for once

guitar 1
eb--000-000-000-0-00-000-000-000-0-00-------->
Bb--444-555-000-2-44-444-555-000-2-44-------->
Gb------------------------------------------->  repeat 1½ times
Db------------------------------------------->
Ab------------------------------------------->
Eb------------------------------------------->

guitar 2
eb------------------------------------------->
Bb------------------------------------------->
Gb-6666-6-----------------6666-6--------9~~-->
Db-6666-67777-7-2222-2222-6666-67777-7--9~~-->
Ab-4444-47777-7-2222-2222-4444-47777-7--7~~-->
Db-------7777-7-2222-2222-------7777-7------->

eb------------------------------------------------------>
Bb------------------------------------------------------>
Gb-9xxx-6xxx-----------6xxx-----------------66-6622-244->
Db-9xxx-6xxx-7xxx-2xxx-6xxx-7xxx--22-2222-2266-6622-244-> repeat non-
Ab-7xxx-4xxx-7xxx-2xxx-4xxx-7xxx--22-2222-2244-4400-022-> muted part
Db-----------7xxx-2xxx------7xxx--22-2222-22------------>
so I say if I cant do something significant I'll opt to leave most
opportunities wasted and nothing trivial to let me give you will measure up
to what might have replaced it too late look my date book is packed full of
days that were empty and now gone and I bet that regret will prove that we
need to improve in the long run

with pre-chorus: guitar 2
eb----------11-----------11----------------------->
Bb--11-11-11--11-11-11-11--11--------------------->
Gb-8--8--8------8--8--8--------5-5-5-5-6-6-4-4---->
Db-----------------------------6-6-6-6-6-6-4-4---->
Ab-----------------------------3-3-3-3-4-4-2-2---->
Db------------------------------------------------>
and sometimes I think that I'm not any good at all and sometimes I wonder
why, why I'm even here at all but then you assure me

chorus 2:

repeat chorus

guitar 2
eb----------------------------------------------------->
Bb----------------------------------------------------->
Gb-9999-9999-5555-6666-2222-2~~------------------------>
Db-9999-9999-5555-6666-2222-2~~------------------------>
Ab-7777-7777-3333-4444-0000-0~~------------------------>
Db----------------------------------------------------->

bridge:

acoustic repeat intro 5x
I noticed I know this week is a symbol of how I use my time resent it I
spent it convincing myself the world's doing just fine

guitar 2
eb-------------------------------------------------------------------->
Bb-------------------------------------------------------------------->
Gb-22-66-22----22-66----44--22-2244-4466-6644-2222-4444-6666-5-6-5-4~~>
Db-22-66-22-22-22-66-22-44--22-2244-4466-6644-2222-4444-6666-5-6-5-4~~>
Ab-00-44-00-22-00-44-22-22--00-0022-2244-4422-0000-2222-4444-3-4-3-2~~>
Db----------22-------22----------------------------------------------->
without me doing anything of any consequence without me showin any sign of
ever makin sense of my time its my life and my right to use it like I
should like He would for the good of everything that I would ever know

repeat chorus 2 then repeat intro 3 and a half times with guitar 2 playing this:

eb------------------------------------------------------>
Bb------------------------------------------------------>
Gb-2~~---------2~~---------2~~---------2~~-------------->
Db-2~~---2~~---2~~---2~~---2~~---2~~---2~~---2~~-------->
Ab-0~~---2~~---0~~---2~~---0~~---2~~---0~~---2~~-------->
Db-------2~~---------2~~---------2~~---------2~~-------->

                                                      tabbed by: aquaknight3
============================================================================
============================================================================

8. Which To Bury, Us Or The Hatchet

verse 1: guitar 2
eb-------------------------------------------------------------------->
Bb-------------------------------------------------------------------->
Gb-9xxxxxxx-10xxxxx-7xxxxxxxx----------2222--------------------------->
Db-9xxxxxxx-10xxxxx-7xxxxxxxx----------2222-3333-0000-5xxxx-2xxxx----->
Ab-7xxxxxxx-8xxxxxx-5xxxxxxxx----------0000-3333-0000-5xxxx-2xxxx----->
Db---------------------------55555-2222-----3333-0000-5xxxx-2xxxx----->
I think you know what I'm getting at I find it so upsetting that the
memories that you select you keep the bad but the good you just forget and
even though I'm angry I can still say I know my heart will break the day
when you peel out and drive away I can't believe this happened

pre-chorus: guitar 2
eb-------------------------------------------------------------------->
Bb-------------------------------------------------------------------->
Gb-------------------------------------------------------------------->
Db-3xxxxxx-10xxxxxx-3xxxxxx-7xxxxx-5-5-5-5---------------------------->
Ab-3xxxxxx-10xxxxxx-3xxxxxx-7xxxxx-5-5-5-5---------------------------->
Db-3xxxxxx-10xxxxxx-3xxxxxx-7xxxxx-5-5-5-5---------------------------->
and all this time I never thought that all we had would be all for none

chorus: guitar 2
eb--------------------------------------------------------------------->
Bb--------------------------------------------------------------------->
Gb--------------------------------------------------------------------->
Db-333-3--777-10-12xxxx-10xx10-10-333-3--777-10-121212-101010-10-3xxxx->
Ab-333-3--777-10-12xxxx-10xx10-10-333-3--777-10-121212-101010-10-3xxxx->
Db-333-3--777-10-12xxxx-10xx10-10-333-3--777-10-121212-101010-10-3xxxx->
no, I don't hate you don't wanna fight you know I'll always love you but
right now I just don't like you know I don't hate you don't want to fight
you know I'll always love you but right now I just don't like you cause you
took this too far, too far

then some kind of banjo thingy or something after the chorus

verse 2:
eb--------------------------------------------------------------------->
Bb--------------------------------------------------------------------->
Gb-10xxxxx-7xxxxxxxxxxx---------------5xxxx-5xxxx---------------------->
Db-10xxxxx-7xxxxxxxxxxx-5xxxxx-2xxxx--5xxxx-5xxxx---------------------->
Ab-8xxxxxx-5xxxxxxxxxxx-5xxxxx-2xxxx--3xxxx-0xxxx---------------------->
Db----------------------5xxxxx-2xxxx--------------000000-5555-222------>
make your decision and don't you dare think twice go with your instincts
along with some bad advice this didn't turn out the way I thought it would
at all you blame me but some of this is still your fault I tried to move
you, but you just wouldn't budge I tried to hold your hand but you'd rather
hold your grudge I think you know what I'm getting at you said goodbye and
I just don't want you regretting that

repeat chorus

bridge: both guitars

guitar 1
eb-3330003330--3-0-3330003330--3-0-3330003330--3-0-3330003330--3-0----->
Bb--------------------------------------------------------------------->
Gb--------------------------------------------------------------------->
Db--------------------------------------------------------------------->
Ab--------------------------------------------------------------------->
Db--------------------------------------------------------------------->

guitar 2
eb--------------------------------------------------------------------->
Bb--------------------------------------------------------------------->
Gb-5~~-------------9~~-------------5~~-------------9~~----------------->
Db-3~~-------------7~~-------------3~~-------------7~~------------777-->
Ab----------------------------------------------------------------777-->
Db----------------------------------------------------------------777-->

guitar 1
eb--3330003330--3-0-3330003330--3-0-3330003330--3-0-3330003330--3-0---->
Bb--------------------------------------------------------------------->
Gb--------------------------------------------------------------------->
Db--------------------------------------------------------------------->
Ab--------------------------------------------------------------------->
Db--------------------------------------------------------------------->
and wisdom always chooses these black eyes and these bruises over the
heartache that they say never completely goes away

guitar 2
eb--------------------------------------------------------------------->
Bb--------------------------------------------------------------------->
Gb--------------------------------------------------------------------->
Db-10\333333333333333/777777777777777\333333333333333/7777777777777-777>
Ab-10\333333333333333/777777777777777\333333333333333/7777777777777-777>
Db-10\333333333333333/777777777777777\333333333333333/7777777777777-777>
and wisdom always chooses these black eyes and these bruises over the
heartache that they say never completely goes away

guitar 1
eb--3330003330--3-0-3330003330--3-0-3330003330--3-0-3330003330--3-0---->
Bb--------------------------------------------------------------------->
Gb--------------------------------------------------------------------->
Db--------------------------------------------------------------------->
Ab--------------------------------------------------------------------->
Db--------------------------------------------------------------------->
(I just can't believe this happened) (one day we'll see this come around,
one day we'll see this come around) and wisdom always chooses these black
eyes and these bruises over the heartache that they say never completely
goes away

guitar 2
eb--------------------------------------------------------------------->
Bb--------------------------------------------------------------------->
Gb--------------------------------------------------------------------->
Db-10\333333333333333/777777777777777\3~~------------/7~~-------------->
Ab-10\333333333333333/777777777777777\3~~------------/7~~-------------->
Db-10\333333333333333/777777777777777\3~~------------/7~~-------------->
(I just can't believe this happened) (one day we'll see this come around,
one day we'll see this come around) and wisdom always chooses these black
eyes and these bruises over the heartache that they say never completely
goes away

repeat chorus

bridge 2/outro is all piano and a banjo or something

what happened to us I heard that it's me we should blame what happened to
us why didn't you stop me from turning out this way and know that I don't
hate you and know that I don't wanna fight you and know I'll always love
you but right now I just don't...
                                                      tabbed by: aquaknight3
============================================================================
============================================================================

9. Let It All Out

this song has no guitar part in it.  it has piano, drums, cello, and violin.

============================================================================
============================================================================

10. Who I Am Hates Who I've Been

intro: guitar 1
eb-0-4-2-0-0-2-4-4-2-0-0-2-4-0-4-2-0-0-2-4-4-2-0-4-2-0--0-0-0~~--->
Bb--------4-----2-----0-------------4-----2-----0-----------4~~--->
Gb---------------------------------------------------------------->
Db---------------------------------------------------------------->
Ab---------------------------------------------------------------->
Db---------------------------------------------------------------->

intro: guitar 2
eb-0~~-----0~~---4~~---0~~----0~~----0~~---4~~---0~~-----0-0-0~~---->
Bb-0~~-----4~~---5~~---0~~----0~~----4~~---5~~---0~~-----0-0-4~~---->
Gb-2~~-----4~~---6~~---1~~----2~~----4~~---6~~---1~~-----2-2-4~~---->
Db-2~~-----4~~---6~~---2~~----2~~----4~~---6~~---2~~-----2-2-4~~---->
Ab-0~~-----2~~---4~~---2~~----0~~----2~~---4~~---2~~-----0-0-2~~---->
Db---------------------2~~-----------------------2~~---------------->

verse 1: the fist part is piano:
I watched the proverbial sunrise coming up over the pacific and you might
think I'm losing my mind but I will shy away from the specifics

repeat intro while singing
cuz I don't want you to know where I am cuz then you'll see my heart in the
saddest state it's ever been

eb--------------------------------------|
Bb--------------------------------------|
Gb-2xxxxxxxxxxxxxxxxxxxx4xxxxxxxxxxxxxx4|
Db-2xxxxxxxxxxxxxxxxxxxx4xxxxxxxxxxxxxx4|
Ab-0xxxxxxxxxxxxxxxxxxxx2xxxxxxxxxxxxxx2|
Eb--------------------------------------|
  this is no place.. to try and live my life

pre-chorus: guitar 2
eb---------------------------------------------------------------------->
Bb---------------------------------------------------------------------->
Gb---------------------------------------------------------------------->
Db-2222/9999--7\13--6/7--11\9-9--2222/9999--7/13------------------------>
Ab-2222/9999--7\13--6/7--11\9-9--2222/9999--7/13------7----7------------>
Db-2222/9999--7\13--6/7--11\9-9--2222/9999--7/13--7xxx-7xxx-9xxxxx------>
stop right that's exactly where I lost it see that line well I never should
have crossed it stop right there I never should have said that it's the
very moment that I wish that I could take back

chorus: guitar 1
eb-0042004200--------00420042-000000000000----------------------------->
Bb--------------------------------------------------------------------->
Gb--------------------------------------------------------------------->
Db--------------------------------------------------------------------->
Ab--------------------------------------------------------------------->
Db--------------------------------------------------------------------->

chorus: guitar 2
eb-0000000000----------------------0000000----------------------------->
Bb-0000000000----------------------0000000----------------------------->
Gb-1111111111-4444/6666666666-4444-1111111/6666666666-2--22222-4444444->
Db-2222222222-4444/6666666666-4444-2222222/6666666666-2--22222-4444444->
Ab-2222222222-2222/4444444444-2222-2222222/4444444444-0--00000-2222222->
Db-2222222222----------------------2222222----------------------------->
I'm sorry for the person I became I'm sorry that it took so long for me to
change I'm ready to be sure I never become that way again cuz who I am hates
who I've been who I am hates who I've been

repeat intro 

verse 2: guitar 2
eb--------------------------------------------------------------------->
Bb--------------------------------------------------------------------->
Gb--------------------------------------------------------------------->
Db-2xxxxxxxx-7xxxxxxx-11xxxx-9xxxxxxxx-2-xxxxxx-7xxxxxx-11xxxxxxxx----->
Ab-2xxxxxxxx-7xxxxxxx-11xxxx-9xxxxxxxx-2-xxxxxx-7xxxxxx-11xxxxxxxx----->
Db-2xxxxxxxx-7xxxxxxx-11xxxx-9xxxxxxxx-2-xxxxxx-7xxxxxx-11xxxxxxxx----->
I talked to absolutely no one couldn't keep to myslelf enough and the things
bottled inside have finaly begun to create so much pressure that I'll soon
blow up and I heard the reverberating footsteps syncing up to the beating of
my heart and I was positive that unless I got myself together

eb--------------------------------------------------------------------->
Bb--------------------------------------------------------------------->
Gb--------------------------------------------------------------------->
Db-9xxxxx999-7777-9999/131313-7777-9999/131313\7xxxxx9xxxxx-9~~-2~~---->
Ab-9xxxxx999-7777-9999/131313-7777-9999/131313\7xxxxx9xxxxx-----2~~---->
Db-9xxxxx999-7777-9999/131313-7777-9999/131313\7xxxxx9xxxxx-----2~~---->
I would watch me fall apart and I can't let that happen again cuz then youll
see my heart in the saddest state it's ever been this is no place to try and
live my life  stop right there that's exactly where I lost it see that line,
well I never should have crossed it stop right there I never should have
said that it's the very moment that I wish that I could take back...

repeat pre-chorus with guitar then repeat chorus

bridge: guitar 2
eb---------------------------------------------------------------------->
Bb---------------------------------------------------------------------->
Gb-------------------------------------4444----------------------------->
Db-6xxx/7xxx2xxx-9-99/111111-7777-2222-4444-2222------------------------>
Ab-6xxx/7xxx2xxx-9-99/111111-7777-2222-2222-2222------------------------>
Eb-6xxx/7xxx2xxx-9-99/111111-7777-2222------2222------------------------>
who I am hates who I've been and who I am will take the second chance you
gave me who I am hates who I've been cuz who I've been only ever made me

repeat chorus

outro is same as intro

                                                      tabbed by: aquaknight3
============================================================================
============================================================================

11. Maintain Consciousness

intro: guitar 1
eb-------------------------------------------------------------------->
Bb-------------------------------------------------------------------->
Gb---------2245454-----------------------2245454---------------------->
Db-5554-4--3355555-5554-4--22-44-5554-4--3355555-5554-4--22-44-------->
Ab-3335-5----------3335-5--33-55-3335-5----------3335-5--33-55-------->
Db-------------------------------------------------------------------->

verse: guitar 2
eb-------------------------------------------------------------------->
Bb-------------------------------------------------------------------->
Gb-------------5xxxx------------------5xxxx-7xxxx--------------------->
Db-5xxxx-4xxxx-3xxxx-3xxxx-xxxx-4xxxx-3xxxx-5xxxx--------(voices)----->
Ab-3xxxx-5xxxx-------5xxxx-xxxx-5xxxx--------------------------------->
Db-------------------------------------------------------------------->
our concentration it contains a deadly flaw our conversations change
from words to blah, blah, blah we took prescription drugs and look how
much good that did

eb------------------------------>
Bb------------------------------>
Gb-------------5xxxx-7~~-------->
Db-5xxxx-4xxxx-3xxxx-5~~-------->
Ab-3xxxx-5xxxx------------------>
Db------------------------------>
I think I had a point but I just got distracted

eb----------------------------------------------------------------5-3->
Bb----------------------------------------------------------------6-3->
Gb-5555------5555------5555------5555------5555------5555------0-2---->
Db-5555-3333-5555-5555-5555-3333-5555-5555-5555-3333-5555-5555-2-3---->
Ab-3333-3333-3333-5555-3333-3333-3333-5555-3333-3333-3333-5555-------->
Db------3333------5555------3333------5555------3333------5555-------->
and lately it just seems to me that we've got the letters A.D.D.
branded into our mentality we simply cant focus on anything

eb-------------------------------------------------------------------->
Bb-------------------------------------------------------------------->
Gb-55---5577---771010---101055---55---5577---77-------55-------------->
Db-55---5577---771010---101055---55---5577---7733---3355-------------->
Ab-33---3355---558-8----8-8-33---33---3355---5533---3333-------------->
Db---------------------------------------------33---33---------------->
because it's 17, 18, 19 routine and here at 23 it's the same old me
and that one thing of the moment that we all happen to like will only
very temporarily kinda break the cycle of the

repeat intro while singing:
double edge sword of being lazy and being bored we just want more and
more and more till its all we can afford

eb-------------------------------------------------------------------->
Bb-------------------------------------------------------------------->
Gb-5~~-------5~~------------------------------------------------------>
Db-5~~--3~~--5~~--6~~--7~~--10\5~~--3xxxx-5xxxx----------------------->
Ab-3~~--3~~--3~~--6~~--7~~--10\5~~--3xxxx-5xxxx----------------------->
Db------3~~-------6~~--7~~--10\5~~--3xxxx-5xxxx----------------------->
to keep our eyes open for just one more day to keep on hoping that
we'll stumble on a way to keep our mind open for just one more day cuz
it's completely up to us to maintain consciousness

eb--------------------------------------->
Bb--------------------------------------->
Gb---------2245454----------------------->
Db-5554-4--3355555-5554-4--22--77~~------>
Ab-3335-5----------3335-5--33--77~~------>
Db-----------------------------77~~------>

solo: guitar 1
eb-------------------------------------------------------------->
Bb-------------------------------------------------------------->
Gb-------------------------------------------------------------->
Db-------------------------------------------------------------->
Ab-----3-5-7-----3-5-7-----3-5-7-----3-5-7-----3-5-7-----3-5-7-->
Db-5-5-------5-5-------2-2-------2-2-------1-1-------1-1-------->

brace yourself... its really fast (I don't even think I got it right)
eb-------------------------------------------------------------------->
Bb-------0--0--------------------------------------------------------->
Gb-----55-25-202------------------------------------------------------>
Db---55---------2----------------------------------------------------->
Ab-33------------0035700357--357--357--357-3573-5-7-3-3-33333--------->
Db-------------------------44---44---22---22-------------------------->

guitar 2
eb-------------------------------------------------------------------->
Bb-------------------------------------------------------------------->
Gb--------------------------------------------------5-5-55555--------->
Db---------------77--------44--------33-------------5-5-55555--------->
Ab---------------77--------44--------33-------------3-3-33333--------->
Db---------------77--------44--------33------------------------------->

bridge:
eb-------------------------------------------------------------------->
Bb-------------------------------------------------------------------->
Gb-------------------------------------------------------------------->
Db-7777-4444-3333-1010-7777-4444-3~~---------------------------------->
Ab-7777-4444-3333-1010-7777-4444-3~~---------------------------------->
Db-7777-4444-3333-1010-7777-4444-3~~---------------------------------->
well no one can possibly listen to this  more than 4 reps is just
monotonous we're losing interest, losing interest, losing interest

because it's 17, 18, 19 routine and here at 23 it's the same old me and
that one thing of the moment that we all happen to like will only very
temporarily kinda break the cycle of the

repeat intro while singing:
double edge sword of being lazy and being bored we just want more and more
and more till its all we can afford

eb------------------------------------------------------------------------->
Bb------------------------------------------------------------------------->
Gb-5~~-----5~~------------------------5~~-----5~~-------------------------->
Db-5~~-3~~-5~~-6~~-7~~-10\5~~-3~~-5~~-5~~-3~~-5~~-6~~-7~~-10\5~~-3xx5xx6xx->
Ab-3~~-3~~-3~~-6~~-7~~-10\5~~-3~~-5~~-3~~-3~~-3~~-6~~-7~~-10\5~~-3xx5xx6xx->
Db-----3~~-----6~~-7~~-10\5~~-3~~-5~~-----3~~-----6~~-7~~-10\5~~-3xx5xx6xx->
to keep our eyes open for just one more day to keep on hoping that we'll
stumble on a way to keep our mind open for just one more day cuz it's
completely up to us to maintain consciousness to keep our eyes open for
just one more day to keep on hoping that we'll stumble on a way to keep our
mind open for just one more day cuz it's completely up to us to maintain
consciousness

outro: guitar 1
eb--------------------------------------->
Bb--------------------------------------->
Gb----------2245454---------------------->
Db--5554-4--3355555-5554-4--22-77~~------>
Ab--3335-5----------3335-5--33-77~~------>
Db-----------------------------77~~------>

                                                      tabbed by: aquaknight3
============================================================================
============================================================================

12. This Week The Trend

intro:  guitar 1
eb------------------------------------------------------------------->
Bb------------------------------------------------------------------->
Gb-------6-4------------6-4------------6-4------------6-4------------>
Db----------------6-7------------6-7------------6-7----------6-7----->
Ab-----00---45-5-7----00---45-5-7----44---45-5-7----44---45-5-------->
Db------------------------------------------------------------------->

intro:  guitar 2
eb------------------------------------------------------------------->
Bb------------------------------------------------------------------->
Gb-----------------------------------7~~------------7~~-------------->
Db-7~~------------xxx7~~-------------7~~------------7~~-------------->
Ab-7~~------------xxx7~~-------------5~~------------5~~-------------->
Db-7~~------------xxx7~~--------------------------------------------->

guitar 1
eb------------------------------------------------------------------->
Bb------------------------------------------------------5------------>
Gb---6-4------------6-4------------6-4------------6-4-6---6-4-6------>
Db------------6-7------------6-7------------6-7---------------------->
Ab-00---45-5-7----00---45-5-7----44---45-5-7----44------------------->
Db------------------------------------------------------------------->

guitar 2
eb------------------------------------------------------------------->
Bb------------------------------------------------------------------->
Gb-------------------------------7~~------------7~~------------------>
Db-7~~------------7~~------------7~~------------7~~------------------>
Ab-7~~------------7~~------------5~~------------5~~------------------>
Db-7~~------------7~~------------------------------------------------>

verse 1: piano
and this week the trend was to not wake up till three p.m. I picked the few
conscious hours that I chose to spend and slept away the rest of them

verse 2: guitar 2
eb---------------------------------------->
Bb---------------------------------------->
Gb---------7xxxxxxx11xxxxx4xxxxxxx9xxxxxx->
Db-7xxxxxxx7xxxxxxx11xxxxx4xxxxxxx9xxxxxx->
Ab-7xxxxxxx5xxxxxxx9xxxxxx2xxxxxxx7xxxxxx->
Db-7xxxxxxx------------------------------->
and this week the trend was to crash and burn and then return again to
practice the life that I pretend provides enough to get me through the
weekend

chorus: guitar 2
eb-------------------------------------------------------------------->
Bb-------------------------------------------------------------------->
Gb-6666-7777-2222-9999-6666-7777-2222-9999-----------7xxx-9xxx-7xxxxx->
Db-6666-7777-2222-9999-6666-7777-2222-9999-4xxx-5xxx-7xxx-9xxx-7xxxxx->
Ab-4444-5555-0000-7777-4444-5555-0000-7777-4xxx-5xxx-5xxx-7xxx-5xxxxx->
Db-----------------------------------------4xxx-5xxx------------------>
so I say give me a solution and watch me run with it then you gave you gave
me a solution what have I done with it and I was absolutely sure I had it
all figured out way back then but right now its this minute this hour this
day

verse 3: guitar 2
eb---------------------------------------->
Bb---------------------------------------->
Gb---------7xxxxxxx11xxxxx4xxxxxxx9xxxxxx->
Db-7xxxxxxx7xxxxxxx11xxxxx4xxxxxxx9xxxxxx->
Ab-7xxxxxxx5xxxxxxx9xxxxxx2xxxxxxx7xxxxxx->
Db-7xxxxxxx------------------------------->
and this week the trend was to backstab every single one of my friends and
leave a voicemail message trying to make amends all the while hoping things
work out in the end

guitar 1
eb------------------------------------------------------------------->
Bb------------------------------------------------------------------->
Gb---6-4------------6-4------------6-4------------6-4---------------->
Db------------6-7------------6-7------------6-7----------6-7--------->
Ab-00---45-5-7----00---45-5-7----44---45-5-7----44---45-5------------>
Db------------------------------------------------------------------->

guitar 2
eb------------------------------------------------------------------->
Bb------------------------------------------------------------------->
Gb-------------------------------7~~------------7~~------------------>
Db-7~~------------7~~------------7~~------------7~~------------------>
Ab-7~~------------7~~------------5~~------------5~~------------------>
Db-7~~------------7~~------------------------------------------------>

verse 4: guitar 2
eb---------------------------------------->
Bb---------------------------------------->
Gb---------7xxxxxxx11xxxxx4xxxxxxx9xxxxxx->
Db-7xxxxxxx7xxxxxxx11xxxxx4xxxxxxx9xxxxxx->
Ab-7xxxxxxx5xxxxxxx9xxxxxx2xxxxxxx7xxxxxx->
Db-7xxxxxxx------------------------------->
and this week the trend was to borrow all the strength that you could lend
to keep my head above the surface and not descend back to where I said I'd
never go again

chorus: guitar 2
eb-------------------------------------------------------------------->
Bb-------------------------------------------------------------------->
Gb-6666-7777-2222-9999-6666-7777-2222-9999-----------7xxx-9xxx-7xxxxx->
Db-6666-7777-2222-9999-6666-7777-2222-9999-4xxx-5xxx-7xxx-9xxx-7xxxxx->
Ab-4444-5555-0000-7777-4444-5555-0000-7777-4xxx-5xxx-5xxx-7xxx-5xxxxx->
Db-----------------------------------------4xxx-5xxx------------------>
so I say give me a solution and watch me run with it then you gave you gave
me a solution what have I done with it and I was absolutely sure I had it
all figured out way back then but after this day its this week all over
again

guitar 1
eb------------------------------------------------------------------->
Bb-----------------------------------5---------5--------------------->
Gb---6-4------------6-4-------------6-6-7-6-4-6-6-4------------------>
Db------------6-7-------------6-7-44----------------6-7-------------->
Ab-00---45-5-7----44----45-5-7--------------------------------------->
Db------------------------------------------------------------------->

guitar 2
eb------------------------------------------------------------------->
Bb------------------------------------------------------------------->
Gb----------------7~~-------------11~~----------4~~---9~~------------>
Db-7~~------------7~~-------------11~~----------4~~---9~~------------>
Ab-7~~------------5~~-------------9~~-----------2~~---7~~------------>
Db-7~~--------------------------------------------------------------->

and I just wanna get mugged at knifepoint to get cut enough to wake me up
cuz I know that I don't wanna die sittin around watchin our lives go by and
what we

eb---------------------------------------------------------->
Bb---------------------------------------------------------->
Gb-7xxxxxxxx-9xxxxx-7xxxxxx-9xxxxx-7xxxxxxxxxxxx------------>
Db-7xxxxxxxx-9xxxxx-7xxxxxx-9xxxxx-7xxxxxxxxxxxx------------>
Ab-5xxxxxxxx-7xxxxx-5xxxxxx-7xxxxx-5xxxxxxxxxxxx------------>
Db---------------------------------------------------------->
take from this is what we'll get and I know we haven't quite figured it out
just yet cuz all of us are all too stuck, stuck to a chair watchin our
lives blow up stuck watching out lives blow up

outro: guitar 2
eb-----------|      eb--------------|
Bb-----------|      Bb--------------|
Gb-----------|      Gb--------------|
Db-7-777777--| 5x   Db-xx-7-777777--| 5x
Ab-7-777777--|      Ab-xx-7-777777--|
Db-7-777777--|      Db-xx-7-777777--|

                                                      tabbed by: aquaknight3
============================================================================
============================================================================

13. Life After Death & Taxes

intro:
eb-222-22-2-22-222-22-2-22-------------------------------------------->
Bb-333-22-2-23-333-22-2-20-xxxxx-000-00-0-00-------------------------->
Gb-444-44-4-44-444-44-4-44-xxxxx-000-00-0-00-------------------------->
Db-444-44-4-44-444-44-4-44-----5-555-55-5-55-777-77-7----------------->
Ab-222-22-2-22-222-22-2-22-x-0-5-555-55-5-55-777-77-7-4-2------------->
Db-----------------------------5-555-55-5-55-777-77-7-----0-2--------->
  repeat

verse 1:
eb-------------------------------------------------------------------->
Bb-------------------------------------------------------------------->
Gb-------------------------------------------------------------------->
Db-99xxxxx-5-5-5-5-9-9-7-7-5-5-5-5-99xxxxx-5-5-5-5-9-9-7-7-5-5-5-5---->
Ab-99xxxxx-5-5-5-5-9-9-7-7-5-5-5-5-99xxxxx-5-5-5-5-9-9-7-7-5-5-5-5---->
Db-99xxxxx-5-5-5-5-9-9-7-7-5-5-5-5-99xxxxx-5-5-5-5-9-9-7-7-5-5-5-5---->
hey taxi take me straight to the heart of it the nucleus of politics where
somebody, somebody started it cause they taxed me with a scalpel piece by
piece they cut me deep and bled me dry till there was nothing left to bleed

eb-------------------------------------------------->
Bb-333333333338888888888883333333333333101012128888->
Gb-222222222227777777777772222222222222999911117777->
Db-000000000005555555555550000000000000777799995555->
Ab-000000000005555555555550000000000000777799995555->
Db-000000000005555555555550000000000000777799995555->
and this is how I choose to live as if I'm jumping off a cliff knowing that
you'll save me, knowing that you'll save me

eb-333333222222------------------------------------->
Bb-333333333333888888888888833333333333101012128888->
Gb-222222222222777777777777722222222222999911117777->
Db-000000000000555555555555500000000000777799995555->
Ab-000000000000555555555555500000000000777799995555->
Db-000000000000555555555555500000000000777799995555->
and after all the stupid things I did there's nothing left there to forgive
because you already forgave me, yeah you already forgave me

eb-222-22-2-22-222-22-2-22------------------------------------------->
Bb-333-22-2-23-333-22-2-20-xxxxx-000-00-0-00------------------------->
Gb-444-44-4-44-444-44-4-44-xxxxx-000-00-0-00------------------------->
Db-444-44-4-44-444-44-4-44-----5-555-55-5-55-777-77-7---------------->
Ab-222-22-2-22-222-22-2-22-x-0-5-555-55-5-55-777-77-7-4-2------------>
Db-----------------------------5-555-55-5-55-777-77-7-----0-2-------->
   repeat

verse 2:
eb-------------------------------------------------------------------->
Bb-------------------------------------------------------------------->
Gb-------------------------------------------------------------------->
Db-99xxxxx-5-5-5-5-9-9-7-7-5-5-5-5-99xxxxx-5-5-5-5-9-9-7-7-5-5-5-5---->
Ab-99xxxxx-5-5-5-5-9-9-7-7-5-5-5-5-99xxxxx-5-5-5-5-9-9-7-7-5-5-5-5---->
Db-99xxxxx-5-5-5-5-9-9-7-7-5-5-5-5-99xxxxx-5-5-5-5-9-9-7-7-5-5-5-5---->
just keep driving leave these defeat miles behind me so far back I'd have
to rack my mind to just remind me I keep trying to pick myself back up and
then move on and think about the life I'll have when this fragile one is
gone

eb-------------------------------------------------->
Bb-333333333338888888888883333333333333101012128888->
Gb-222222222227777777777772222222222222999911117777->
Db-000000000005555555555550000000000000777799995555->
Ab-000000000005555555555550000000000000777799995555->
Db-000000000005555555555550000000000000777799995555->
and this is how I choose to live as if I'm jumping off a cliff knowing that
you'll save me, knowing that you'll save me

eb-333333222222------------------------------------->
Bb-333333333333888888888888833333333333101012128888->
Gb-222222222222777777777777722222222222999911117777->
Db-000000000000555555555555500000000000777799995555->
Ab-000000000000555555555555500000000000777799995555->
Db-000000000000555555555555500000000000777799995555->
and after all the stupid things I did there's nothing left there to forgive
because you already forgave me, yeah you already forgave me

chorus:
eb-222222-222222----------------000000------------------------------->
Bb-333333-333333---------333333-222222-3333333---------333----------->
Gb-444444-444444-4444444-222222-222222-2222222-4444444-222-3--------->
Db-444444-444444-5555555-000000-222222-0000000-5555555-000-4-5xx7xx4->
Ab-222222-000000-5555555-000000-000000-0000000-5555555-000-4-5xx7xx4->
Db---------------5555555-000000--------0000000-5555555-000---5xx7xx4->
and never forget there's life after death and taxes and forgiveness comes
then all of the rest is what passes away death and decay can't touch us now

eb-222-22-2-22-222-22-2-22-------------------------------------------->
Bb-333-22-2-23-333-22-2-20-xxxxx-000-00-0-00-------------------------->
Gb-444-44-4-44-444-44-4-44-xxxxx-000-00-0-00-------------------------->
Db-444-44-4-44-444-44-4-44-----5-555-55-5-55-777-77-7----------------->
Ab-222-22-2-22-222-22-2-22-x-0-5-555-55-5-55-777-77-7-4-22------------>
Db-----------------------------5-555-55-5-55-777-77-7------0-2-------->
repeat this-       -          -           -        -| let it ring

bridge:
eb------------------------------------------------------------------------->
Bb---------------------------------3-3---3---3-3---3---3-3---3---3-3---3--->
Gb---------------------------------4-4-4-2-3-4-4-4-2-3-4-4-4-2-3-4-4-4-2-3->
Db-5xxxxx/7xxxxx/9xxxxx/10xxxxx5~~-4-4-5-0-4-4-4-5-0-4-4-4-5-0-4-4-4-5-0-4->
Ab-5xxxxx/7xxxxx/9xxxxx/10xxxxx5~~-2-0-5-0-4-2-0-5-0-4-2-0-5-0-4-2-0-5-0-4->
Db-5xxxxx/7xxxxx/9xxxxx/10xxxxx5~~-----5-0-4-----5-0-4-----5-0-4-----5-0-4->
every breath that I inhale is followed by exhaling sure as the one who never
fails I know will never fail me never forget there's life after death and
taxes and forgiveness comes then all of the rest is what passes away
never forget there's life after death and taxes
(and this is how I choose to live as if I'm jumping off a cliff knowing that
you'll save me, knowing that you'll save me)
and forgiveness comes when all of the rest is what passes away
(and after all the stupid things I did there's nothing left there to forgive
because you already forgave me yeah, you already forgave me)

eb-------------------------------------->
Bb-------------------------------------->
Gb-------------------------------------->
Db-5xxxxx/7xxxxx\4-4-9~~---------------->
Ab-5xxxxx/7xxxxx\4-4-9~~---------------->
Db-5xxxxx/7xxxxx\4-4-9~~---------------->
death and decay can't touch us now
                                                      tabbed by: aquaknight3
============================================================================
============================================================================

14. When I Go Down

tune guitar 2 back to normal (E A d G B e)

intro: guitar 1 (acoustic)
e----------------------------------------------------------------------->
B----------------------------------------------------------------------->
G---4--4--4--4--4--4---4--4--4--4--4--4---4--4--4--4--4---4--4--4--4--4->
D--2--2--2--2--2--2-2-2--2--2--2--2--2-2-2--2--2--2--2-2-2--2--2--2--2-->
A-4--4--4--4--4--4---0--0--0--0--0--0---4--4--4--4--4------------------->
E-------------------------------------------------------0--0--0--0--0--->

verse 1: guitar 1
e----------------------------------------------------------------------->
B----------------------------------------------------------------------->
G---4--4--4--4--4--4---4--4--4--4--4--4---4--4--4--4--4---4--4--4--4--4->
D--2--2--2--2--2--2-2-2--2--2--2--2--2-2-2--2--2--2--2-2-2--2--2--2--2-->
A-4--4--4--4--4--4---0--0--0--0--0--0---4--4--4--4--4------------------->
E-------------------------------------------------------0--0--0--0--0--->
I'll tell you flat out it hurts so much to think of this so from my
thoughts I will exclude

e----------------------------------------------------------------------->
B----------------------------------------------------------------------->
G---4--4--4--4--4--4---4--4--4--4--4--4---4--4--4--4--4---4--4--4--4--4->
D--2--2--2--2--2--2-2-2--2--2--2--2--2-2-2--2--2--2--2-2-2--2--2--2--2-->
A-4--4--4--4--4--4---0--0--0--0--0--0---4--4--4--4--4------------------->
E-------------------------------------------------------0--0--0--0--0--->
the very thing that that I hate more than everything is the way I'm
powerless to dictate my own

e----------------------------------------------------------------------->
B----------------------------------------------------------------------->
G---2--2----4--4----2--2----4--4----2--2----4--4----2--2----4--4----1~~->
D--0--0--0-0--0--0-0--0--0-0--0--0-0--0--0-0--0--0-0--0--0-0--0--0-2---->
A----------------------------------------------------------------------->
E-2--2--2-3--3--3-2--2--2-3--3--3-2--2--2-3--3--3-2--2--2-3--3--3-0----->
moods, I've thrown away so many things that could've been much more and I
just pray my problems go away if they're ignored but that's not the way it
works

e------------------------->
B------------------------->
G-1111-0000-2~~----------->
D-2222-0000-2~~----------->
A-2222-2222-0~~----------->
E-0000-3333--------------->
no, it's not the way it works

chorus 1: guitar 1
e------------------------------------------------>
B-3333-3333-3333-3333333-3333-3333-3333-3333~~--->
G-2222-2222-2222-2222222-2222-2222-2222-2222~~--->
D-0000-0000-0000-0000000-0000-0000-0000-0000~~--->
A------2222------0000000------2222------0000~~--->
E-----------3333-------------------3333---------->
when I go down, I go down hard and I take everything I've learned and teach
myself some disregard when I go down, it hurts to hit the bottom and of the
things that got me there I think, if only I had fought them

e-------------------------------------------------------------->
B-------------------------------------------------------------->
G---4--4--4--4--4--4---4--4--4--4--4--4---4--4--4--4--4-------->
D--2--2--2--2--2--2-2-2--2--2--2--2--2-2-2--2--2--2--2-2-2~~--->
A-4--4--4--4--4--4---0--0--0--0--0--0---4--4--4--4--4----2~~--->
E--------------------------------------------------------0~~--->

verse 2: guitar 2 part (w/distortion)
e----------------------------------------------------0~~---------------->
B----------------------------------------------------0~~---------------->
G-444-4-4~~-444--444-4-4~~-444--444-4-4~~-444--444-4-4~~-444------------>
D-222-2-2~~-222--222-2-2~~-222--222-2-2~~-222--222-2-2~~-222------------>
A-444-4-4~~-444--000-0-0~~-000--444-4-4~~-444--000-0-0~~-000------------>
E----------------------------------------------------------------------->
if and when I can clear myself of this clouded mind I'll watch myself
settle down 

e----------------------------------------------------0~~---------------->
B----------------------------------------------------0~~---------------->
G-444-4-4~~-444--444-4-4~~-444--444-4-4~~-444--444-4-4~~-444------------>
D-222-2-2~~-222--222-2-2~~-222--222-2-2~~-222--222-2-2~~-222------------>
A-444-4-4~~-444--000-0-0~~-000--444-4-4~~-444--000-0-0~~-000------------>
E----------------------------------------------------------------------->
into a place where peace can search me out and find that I'm so ready to be found

guitar 1
e------------------------------------------------------------------->
B------------------------------------------------------------------->
G---2--2----4--4----2--2----4--4----2--2----4--4----2--2----4--4---->
D--0--0--0-0--0--0-0--0--0-0--0--0-0--0--0-0--0--0-0--0--0-0--0--0-->
A------------------------------------------------------------------->
E-2--2--2-3--3--3-2--2--2-3--3--3-2--2--2-3--3--3-2--2--2-3--3--3--->
I've thrown away the hope I had in friendships I've thrown away so many
things that could have been much more I've thrown away the secret to find
an end to this 
                                  guitar 2
e------------------------------------------------------------------->
B------------------------------------------------------------------->
G---2--2----4--4----2--2----4--4-------------2~~-------------------->
D--0--0--0-0--0--0-0--0--0-0--0---2~~---5555-2~~-------------------->
A---------------------------------2~~---5555-0~~-------------------->
E-2--2--2-3--3--3-2--2--2-3--3--3-0~~---3333------------------------>
and I just pray my problems go away if they're ignored but that's not the
way it works no, it's not the way it works

chorus 2: guitar 2's part
e---------------------------------------------------------->
B-3333-3333-3333-3333333-3333-3333-3333-33333333-2222~~---->
G-2222-2222-2222-2222222-2222-2222-2222-22222222-2222~~---->
D-0000-0000-0000-0000000-0000-0000-0000-00000000-0000~~---->
A-0000-2222-2222-0000000-0000-2222-2222-00000000-0000~~---->
E-----------3333-------------------3333-------------------->
when I go down I go down hard and I take everything I've learned and teach
myself some disregard when I go down it hurts to hit the bottom and of the
things that got me there I think, if only I had fought them

bridge 1: guitar 1
e-------------------------------------------------------------------------->
B--3-333-3-333-3-333-3-333-3-333-3-3---3322-3333-3333-3333-3333-3333-3333-->
G--2-222-2-222-2-222-2-222-2-222-2-2---2222-2222-2222-2222-2222-2222-2222-->
D-------------------------------------------0000-0000-0000-0000-0000-0000-->
A-2-----0-----------0------------------0---------2222-----------2222------->
E-------------3--2--------3------3-0-23---------------3333-----------3333-->
any control I thought I had just slips right through my hands while my ever-
present conscience shakes its head and reprimands me, reprimands me then
and there I confess I'll blame all this on my selfishness yet you love me
and that consumes me and I'll stand up again and do so willingly

solo type thing                   bridge 2: guitar 1 (I think)
e-3-2-----3-2-----3-2-----3-2-----3-2-----3-2-----3-2-----3-2------->
B----3-------3-------3-------3-------3-------3-------3-------3------>
G-----2~~-------------4~~-------------2~~-------------4~~----------->
D-------------0~~-------------0~~-------------0~~-------------0~~--->
A------------------------------------------------------------------->
E------------------------------------------------------------------->
                                  you give me hope, and hope it gives me
life you touch my heavy heart, and when you do you make it light

e-3-2-----3-2-----3-2-----3-2-----3-2-----3-2-----3-2-----3-2------->
B----3-------3-------3-------3-------3-------3-------3-------3------>
G-----2~~-------------4~~-------------2~~-------------4~~----------->
D-------------0~~-------------0~~-------------0~~-------------0~~--->
A------------------------------------------------------------------->
E------------------------------------------------------------------->
as I exhale I hear your voice and I answer you, though I hardly make a
noise and from my lips the words I choose to say seem pathetic but it's a
fallen man's praise

e-3-2~~--3-2~~--7-2~~--3-2~~--->
B-3-3~~--0-3~~--3-3~~--0-3~~--->
G------------------------------>
D------------------------------>
A------------------------------>
E------------------------------>
because I love you oh God, I love you

e-3-2~~--3-2~~--7-2~~--3-2~~--3-2~~--3-2~~--7-2~~--3-2~~->
B-3-3~~--0-3~~--3-3~~--0-3~~--3-3~~--0-3~~--3-3~~--0-3~~->
G-------------------------------------------------------->
D-------------------------------------------------------->
A-------------------------------------------------------->
E-------------------------------------------------------->

guitar 1
e-3-2~~---3-2~~---7-2~~---3-2~~---3-2~~---3-2~~---7-2~~---3-2~~----->
B-3-3~~---0-3~~---3-3~~---0-3~~---3-3~~---0-3~~---3-3~~---0-3~~----->
G------------------------------------------------------------------->
D------------------------------------------------------------------->
A------------------------------------------------------------------->
E------------------------------------------------------------------->

guitar 2
e-3-2-----3-2-----3-2-----3-2-----3-2-----3-2-----3-2-----3-2------->
B----3-------3-------3-------3-------3-------3-------3-------3------>
G-----2~~-------------4~~-------------2~~-------------4~~----------->
D-------------0~~-------------0~~-------------0~~-------------0~~--->
A------------------------------------------------------------------->
E------------------------------------------------------------------->

and life is now worth living if only because of you and when they say I'm
dead and gone, it won't be further from the truth

guitar 2
e------------------------------------------------->
B-333--------------------333---------------------->
G-222---------4----------222---------4------------>
D-000-55/7777-4-4-4/5~~--000-55/7777-4-4-4/5~~---->
A-----55/7777-2-4-4/5~~------55/7777-2-4-4/5~~---->
E-----33/5555---2-2/3~~------33/5555---2-2/3~~---->

last chorus: another acoustic
e-------------------------------------------------------------------------->
B----------------------------4~~----------------4~~--5-4-0--0h2~~------3~~->
G----------------------------------4--------------------------------------->
D---(fist part is piano)---------------4h6--------------------------------->
A-------------------------------------------------------------------------->
E-------------------------------------------------------------------------->
when I go down I lift my eyes to you I won't look very far cause you'll be
there with open arms to lift me up again to lift me up again

last chorus: guitar 1
e--------------------------------------------------------------------------|
B--------------------------------------------------------------------------|
G-----------------------4--4--4--4--4--4---4--4--4--4--4--4---4--4--4--4--4|
D-(fist part is piano)-2--2--2--2--2--2-2-2--2--2--2--2--2-2-2--2--2--2--2-|
A---------------------4--4--4--4--4--4---0--0--0--0--0--0---4--4--4--4--4--|
E--------------------------------------------------------------------------|

                                                      tabbed by: aquaknight3
============================================================================
============================================================================
comments
print report bad tab
6 comments total. Showing first comments.
0 reply
Sterbob23 wrote on July 14 2005, 12:00 am

Very well done, the only thing i see wrong is High of '75... it just doesn't sound quite right, other than that... good tab!

0 reply
tmacman001 wrote on September 29 2005, 09:45 pm

yeah and it's not just high of 75 either. Look at my tab for that one. Be my escape's intro is totally screwed up. Big time.

0 reply
fret13 wrote on August 1 2006, 08:29 am

wheres track 0
wheres MMHMM

I want to post or [tab]
guest
You may want to rate the tab now too:
select rating
Please do not post tabs as comments. Select "correction" instead!