Oops, an error
Loading. Please wait.

My Girls Ex-Boyfriend Tab

ver2
ver2

Whole song

Interactive

More versions @911Tabs.com
3,109 views 1 this week
no commentswrite comment
1 2 3 4 5
excellent!
x 1
Autoscroll
+/-
esc
set tempo
stop
Contributor
Hey! There's an official Ultimate Guitar app which is ideal
for learning songs when you're away from computer. Get the app
WARNING: You are trying to view
                                    content from Ultimate-Guitar.com
                                    in an unauthorized application,
                                    which is prohibited.

                                    Please use an official Ultimate
                                    Guitar Tabs application for iPhone,
                                    iPad or Android to access legitimate
                                    chords, guitar, bass, and drum tabs
                                    from Ultimate-Guitar.com database.

                                    Type "ultimate guitar tabs" in Apple
                                    App Store's or Android Market's
                                    search to find the application.
My Girl's Ex-Boyfriend
Relient K
MMHMM
2004

Tempo: 154

Intro:
Guitars 1 & 2 (dist.)
         Riff A
Eb|-----|------------------------|-------------------|------------------------|
Bb|-/13-|---13-------------------|---------------/13-|---13-------------------|
Gb|-----|------12-12-10-10-12-12-|-7---9-9-10p9-9----|------12-12-10-10-12-12-|
Db|-----|------------------------|-------------------|------------------------|
Ab|-----|------------------------|-------------------|------------------------|
Eb|-----|------------------------|-------------------|------------------------|

--------------------|
-----------------/13|
-7---9-9-10h12-12---|
--------------------|
--------------------|
--------------------|

Guitar 3 (dist.)
         Riff A1
Eb|-----|--------------------|------------------|--------------------|------------------|
Bb|-----|--------------------|------------------|--------------------|------------------|
Gb|-/12-|---12-9-9-------9/--|-4---5-5-7p5-5/12-|---12-9-9-------9-9-|-4---5-5-7h9-9/12-|
Db|-----|----------12-12-----|------------------|----------12-12-----|------------------|
Ab|-----|--------------------|------------------|--------------------|------------------|
Eb|-----|--------------------|------------------|--------------------|------------------|

Guitar 4 (dist.)           Rhy. Fig. 1                          End. Rhy. Fig. 1
Eb|-----|-----------------|-----------------|-----------------|-----------------|
Bb|-----|-----------------|-----------------|-----------------|-----------------|
Gb|-----|-----------------|-5---5-5-5-5-5---|-----------------|-5---5-5-5-------|
Db|---3-|-3-3-3-3-3-3-3-3-|-5---5-5-5-5-5-3-|---3-3-3-3-3-3-3-|-5---5-5-5-5-5-3-|
Ab|---3-|-3-3-3-3-3-3-3-3-|-3---3-3-3-3-3-3-|---3-3-3-3-3-3-3-|-3---3-3-5-5-5-3-|
Eb|---1-|-1-1-1-1-1-1-1-1-|---------------1-|---1-1-1-1-1-1-1-|---------3-3-3-1-|
                                P.M.* * * 

Guitars 1 & 2					Feedback                End Riff A
Eb|------------------------|-------------------|-----------------|----------------|
Bb|---13-------------------|-------------------|-----------------|----------------|
Gb|------12-12-10-10-12-12-|-7---9-9-10p9-9----|-----------------|----------------|
Db|------------------------|----------------10~|-----------------|----------------|
Ab|------------------------|-------------------|-----------------|-10~------------|
Eb|------------------------|-------------------|-----------------|----------------|

Guitar 3				  			 End Riff A1
Eb|--------------------|-----------------|-----------------|----------------|
Bb|--------------------|-----------------|---------6~------|----------------|
Gb|---12-9-9-------9/--|-4---5-5-7p5-5-5~|-----------------|-7~-------------|
Db|----------12-12-----|-----------------|-----------------|----------------|
Ab|--------------------|-----------------|-----------------|----------------|
Eb|--------------------|-----------------|-----------------|----------------|

Guitar 4
Eb|-----------------|-----------------|-----------------|-----------------|
Bb|-----------------|-----------------|-----------------|-----------------|
Gb|-----------------|-5---5-5---------|-----------------|-----------------|
Db|---3-3-3-3-3-3-3-|-5---5-5-5-5-5-3-|-----3-3-3-3-3-3-|-5-5-5-5-5-5-5-5-|
Ab|---3-3-3-3-3-3-3-|-3---3-3-5-5-5-3-|-----3-3-3-3-3-3-|-5-5-5-5-5-5-5-5-|
Eb|---1-1-1-1-1-1-1-|---------3-3-3-1-|-----1-1-1-1-1-1-|-3-3-3-3-3-3-3-3-|
					P.M.* * * * * *   * * * * * * * *
Verse 1:
Guitar 4
Eb|-`---------------|-`---------------|-`---------------|
Bb|-`---------------|-`---------------|-`---------------|
Gb|-`---------------|-`---------------|-`-5-5-5-5-5-5-5-|
Db|-`-3-3-3-3-3-3-3-|-`-3-3-3-3-3-3-3-|-`-5-5-5-5-5-5-5-|
Ab|-`-3-3-3-3-3-3-3-|-`-3-3-3-3-3-3-3-|-`-3-3-3-3-3-3-3-|
Eb|-`-1-1-1-1-1-1-1-|-`-1-1-1-1-1-1-1-|-`---------------|
  P.M.* * * * * * *     * * * * * * *     * * * * * * *
   |--Rhy. Fill 1---|Rhy. Fig. 2
Eb|-`---------------|-`---------------|-`---------------|
Bb|-`---------------|-`---------------|-`---------------|
Gb|-`---------------|-`---------------|-`---------------|
Db|-`-5-5-5-5-5-5-5-|-`-3-3-3-3-3-3-3-|-`-3-3-3-3-3-3-3-|
Ab|-`-5-5-5-5-5-5-5-|-`-3-3-3-3-3-3-3-|-`-3-3-3-3-3-3-3-|
Eb|-`-3-3-3-3-3-3-3-|-`-1-1-1-1-1-1-1-|-`-1-1-1-1-1-1-1-|
      * * * * * * *     * * * * * * *     * * * * * * *
Guitar 3
Eb|-----------------|-----------------|-----------------|
Bb|-----------------|-----------------|-----------------|
Gb|-----------------|-----------------|-----------------|
Db|---------------5-|-`-5-`-7-`-5--/3-|-----------------|
Ab|-----------------|-----------------|-----------------|
Eb|-----------------|-----------------|-----------------|
         Vocals:  ah,   ah, ah, ah, out.
Guitar 4
Eb|-`---------------|-`---------------|
Bb|-`---------------|-`---------------|
Gb|-`-5-5-5-5-5-5-5-|-`---------------|
Db|-`-5-5-5-5-5-5-5-|-`-5-5-5-5-5-5-5-|
Ab|-`-3-3-3-3-3-3-3-|-`-5-5-5-5-5-5-5-|
Eb|-`---------------|-`-3-3-3-3-3-3-3-|
      * * * * * * *     * * * * * *
Guitar 4 w/ Rhy. Fig. 2 (1 3/4 times) then w/ Rhy. Fill 1 (once)

Chorus:
Guitar 4
Eb|-----------------|-----------------|-----------------|
Bb|-----------------|-----------------|-----------------|
Gb|---------------5-|---5-5---5-5-5---|---------------5-|
Db|-3---3---3-3-3-5-|---5-5---5-5-5-3-|---3-3---3-3-3-5-|
Ab|-3---3---3-3-3-3-|---3-3---3-3-3-3-|---3-3---3-3-3-3-|
Eb|-1---1---1-1-1---|---------------1-|---1-1---1-1-1---|

Eb|-----------------|-----------------|-----------------|
Bb|-----------------|-----------------|-----------------|
Gb|-----5-----------|---------------5-|-----5---5-5-5-7-|
Db|-----5---5-5-5-3-|-----3---3-3-3-5-|-----5---5-5-5-7-|
Ab|-----3---5-5-5-3-|-----3---3-3-3-3-|-----3---3-3-3-5-|
Eb|---------3-3-3-1-|-----1---1-1-1---|-----------------|
        P.M.* * *    2nd time go to 
Eb|-----------------|-----------------|-----------------|
Bb|-----------------|-----------------|-----------------|
Gb|-----------------|---------5~------|-----------------|
Db|-------7-7-----3-|-3---3---5~------|-----------------|
Ab|-------7-7-----3-|-3---3---3~------|-----------------|
Eb|-------5-5-----1-|-1---1-----------|-----------------|

Verse 2:
Guitar 4 w/ Rhy. Fig. 4 (3 3/4 times) 

Eb|-`---------------|
Bb|-`---------------|
Gb|-`---------------|
Db|-`-5-5-5-5-5-5-5-|
Ab|-`-5-5-5-5-5-5-5-|
Eb|-`-3-3-3-3-3-3-3-|
  P.M.* * * * * * * 
 
Chorus: Piano
Eb|-----------------|-----------------|
Bb|-----------------|-5~--------------|
Gb|-2~--------------|-5~--------------|
Db|-3~--------------|-5~--------------|Repeat
Ab|-3~--------------|-3~--------------|
Eb|-1~--------------|-----------------|

Guitar 4 (on repeat)
Eb|-----------------|-----------------|-----------------|
Bb|-----------------|-----------------|-----------------|
Gb|-----------------|-----------------|-----------------|
Db|-----------------|---------------3-|---3-3-3-3-3-3-3-|
Ab|-----------------|---------------3-|---3-3-3-3-3-3-3-|
Eb|-----------------|---------------1-|---1-1-1-1-1-1-1-|
                                      P.M.* * * * * * *
Eb|-`---------------|-`---------------|-`---------------|--------|
Bb|-`---------------|-`---------------|-`---------------|--------|
Gb|-`-5-5-5-5-5-5-5-|-`---------------|-`-------5~------|--------|
Db|-`-5-5-5-5-5-5-5-|-`-3-3-3---------|-`-3-3-3-5~------|--------|
Ab|-`-3-3-3-3-3-3-3-|-`-5-5-5-3-3-3-3-|-`-3-3-3-3~------|--------|
Eb|-`---------------|-`-------5-5-5-5-|-`-1-1-1---------|--------|
      * * * * * * *     * * * * * * *     * * *
Bridge
Guitar 4
Eb|-----------------|-----------------|
Bb|-----------------|-----------------|
Gb|---------------5-|---5-5-----------|
Db|-3---3---3-3-3-5-|---5-5---5-5-5-5-|
Ab|-3---3---3-3-3-3-|---3-3---5-5-5-5-|
Eb|-1---1---1-1-1---|---------3-3-3-3-|
                          P.M.* * * * 
Eb|-----------------|-----------------|-----------------|
Bb|-----------------|-----------------|-----------------|
Gb|-----------------|-----------------|---------------5-|
Db|-3---3---3-3-3/7-|-----7--/5-5-5-5-|-3---3-3-3-3-3-5-|
Ab|-3---3---3-3-3/7-|-----7--/5-5-5-5-|-3---3-3-3-3-3-3-|
Eb|-1---1---1-1-1/5-|-----5--/3-3-3-3-|-1---1-1-1-1-1---|
		`	  P.M.* * *  *	
Eb|-----------------|-----------------|-----------------|
Bb|-----------------|-----------------|-----------------|
Gb|-5-5-5---5-5-5---|-----------------|---------5~------|
Db|-5-5-5---5-5-5-7-|-7~------3~------|-5~------5~----3-|
Ab|-3-3-3---3-3-3-7-|-7~------3~------|-5~------3~----3-|
Eb|---------------5-|-5~------1~------|-3~------------1-|

Interlude:
Guitars 1 & 2 w/ Riff A
Guitar 3 w/ Riff A1
Guitar 4 w/ Rhy. Fig. 1 (2 times)
Guitar 4
Eb|-----------------|-----------------|-----------------|-----------------|
Bb|-----------------|-----------------|-----------------|-----------------|
Gb|-----------------|-5---5-5---------|-----------------|-----------------|
Db|---3-3-3-3-3-3-3-|-5---5-5-5-5-5-3-|---3-3-3-3-3-3-3-|-5-5-5-5-5-5-5-3-|
Ab|---3-3-3-3-3-3-3-|-3---3-3-5-5-5-3-|---3-3-3-3-3-3-3-|-5-5-5-5-5-5-5-3-|
Eb|---1-1-1-1-1-1-1-|---------3-3-3-1-|---1-1-1-1-1-1-1-|-3-3-3-3-3-3-3-1-|
                          P.M.* * *         * * * * * *   * * * * * * * 

Bridge 2:
Guitar 4
Eb|-----------------|-----------------|-----------------|
Bb|-----------------|-----------------|-----------------|
Gb|-----------------|-----------------|-----------------|
Db|---3-3-----------|-------5---5-5-3-|-----3-----------|
Ab|---3-3-----------|-3-----5---5-5-3-|-----3-----------|
Eb|---1-1-----------|-0-----3---3-3-1-|-----1-----------|

Eb|-----------------|-----------------|-----------------|
Bb|-----------------|-----------------|-----------------|
Gb|-----------------|-----------------|-5-5-5-5---------|
Db|---------5-----3-|---3-3-3-3-3-3-3-|-5-5-5-5-5-5-5-5-|
Ab|-3-------5-----3-|---3-3-3-3-3-3-3-|-3-3-3-3-5-5-5-5-|
Eb|-0-------3-----1-|---1-1-1-1-1-1-1-|---------3-3-3-3-|

Guitar 4
Eb|-----------------|-----------------|----------|
Bb|-----------------|-----------------|----------|
Gb|-----------------|-----------------|----------|
Db|-7-7-7-7-5-5-5-5-|-3-3-3-3---------|----------|
Ab|-7-7-7-7-5-5-5-5-|-3-3-3-3---------|----------|
Eb|-5-5-5-5-3-3-3-3-|-1-1-1-1---------|----------|

Guitar 5 (slight dist. & amp tremolo
Eb|-----------------|---------1-------|----------|
Bb|-----------------|---------1-------|----------|
Gb|-----------------|---------1-------|----------|
Db|-----------------|---------3-------|----------|
Ab|-----------------|---------3-------|----------|
Eb|-----------------|---------1-------|----------|

Chorus (but go to Outro before last measure of Chorus)

Outro:
Guitar 4 from Chorus| Guitar 6 (acoustic)
Eb|-----------------|-1---1-1---1-1-0-|---0-0---0-0-0-0-|
Bb|-----------------|-1---1-1---1-1-1-|---1-1---1-1-1-1-|
Gb|(5)--------------|-2---2-2---2-2-0-|---0-0---0-0-0-0-|
Db|(5)--------------|-3---3-3---3-3-2-|---2-2---2-2-2-2-|
Ab|(3)--------------|-3---3-3---3-3-3-|---3-3---3-3-3-3-|
Eb|-----------------|-1---1-1---1-1---|-----------------|

Eb|-1---1-1---1-x-0-|---0-0-0-3-3-3-3-|-1---1-1---1-1-`-|
Bb|-1---1-1---1-x-1-|---1-1-1-3-3-3-3-|-1---1-1---1-1-`-|
Gb|-2---2-2---2-x-2-|---2-2-2-0-0-0-0-|-2---2-2---2-2-`-|
Db|-3---3-3---3-x-2-|---2-2-2-0-0-0-0-|-3---3-3---3-3-`-|
Ab|-3---3-3---3-x-0-|---0-0-0-2-2-2-2-|-3---3-3---3-3-`-|
Eb|-1---1-1---1-x---|---------3-3-3-3-|-1---1-1---1-1-`-|

Eb|-0---0-0---0-0-0-|-1---1-0---0-0-0-|-3---3-0~--------|
Bb|-1---1-1---1-1-1-|-1---1-1---1-1-1-|-3---3-1~--------|
Gb|-0---0-0---0-0-0-|-2---2-0---0-0-0-|-0---0-0~--------|
Db|-2---2-2---2-2-2-|-3---3-2---2-2-2-|-0---0-2~--------|
Ab|-3---3-3---3-3-3-|-3---3-3---3-3-3-|-2---2-3~--------|
Eb|-----------------|-1---1-3---3-3-3-|-3---3-----------|

comments
We did not receive enough feedback on this tab! Please rate:
print report bad tab
1 2 3 4 5
I want to post or [tab]
guest
You may want to rate the tab now too:
select rating
Please do not post tabs as comments. Select "correction" instead!