Oops, an error
Loading. Please wait.

The Anatomy Of The Tongue In Cheek Tab

7,229 views 6 this week
3 commentsread comments
1 2 3 4 5
excellent!
x 7
add to favorites launch autoscroll
font size
0
reset
Autoscroll
+/-
esc
set tempo
stop
Contributor
WARNING: You are trying to view
                                    content from Ultimate-Guitar.com
                                    in an unauthorized application,
                                    which is prohibited.

                                    Please use an official Ultimate
                                    Guitar Tabs application for iPhone,
                                    iPad or Android to access legitimate
                                    chords, guitar, bass, and drum tabs
                                    from Ultimate-Guitar.com database.

                                    Type "ultimate guitar tabs" in Apple
                                    App Store's or Android Market's
                                    search to find the application.
-----------------------------------------------------------
    The Anatomy of the Tongue in Cheek Album-Relient K
-----------------------------------------------------------

Compiled/Tabbed by: Daniel T
Email: dtien51@msn.com ßsend your comments, complaints, insults, date offers to here
Comments: Hey, it's me again. Sorry if you disliked it when I just took everyone's
work so I tabbed a few songs myself but the majority still comes from other people.
I hope you'll enjoy this one even more because this is a really high-energy album that
never gets boring. Again I'll be included the tabbers names and their emails and a link
to the original sites so you can check out if there are any corrections/comments for the
song. Please rate this if you enjoyed it! But if you didn't...please don't J.

The Lineup:
1.	Kick-off
2.	Pressing On
3.	Sadie Hawkins Dance
4.	Down in Flames
5.	Maybe It's Maybeline
6.	Breakdown
7.	Those Words Are Not Enough
8.	For the Moments I Feel Faint
9.	Lion Wilson
10.	 I'm Lion-O
11.	 What Have You Been Doing Lately?
12.	 May the Horse Be With You
13.	 My Way or the Highway...
14.	 Breakfast at Timpani's (not tabbed because it's just   a conversation)
15.	 The Rest Is Up to You
16.	 Failure to Excommunicate
17.	 Less is More
18.	 BONUS/HIDDEN TRACK: Combos and Skittles

Leading off for Relient K is:

Track 1
Band: Relient K
Song: Kick-Off
Album: The Anatomy of the Tongue in Cheek
Copyright: 2001 Gotee Records
Tabbed by: Tim Bolton (elmerfudd218@webtv.net)

thought i'd tab this song just for the heck of it

Intro:  let each chord ring
e------------------------------------------------]
B------------------------------------------------]
G------------------------------------------------]
D-2--3--4--5--6--7--8--9--9999-9999-9999999999---]
A-2--3--4--5--6--7--8--9--9999-9999-9999999999---]
E-0--1--2--3--4--5--6--7--7777-7777-7777777777---]

(listen to cd for strumming)
e------------------------------------------------]
B------------------------------------------------]
G--9-----9-----6--4-----6--4--9--6--4--------999-]
D--9--9--9--9--6--4--7--6--4--9--6--4--7--9--999-]
A--7--9--7--9--4--2--7--4--2--7--4--2--7--9--777-]
E-----7-----7--------5-----------------5--7------]

end on:  D--2--
         A--2--
         E--0--

http://www.christianguitar.org/csong7525/Relient-K-Kick-Off

Track 2
Artist: Relient K
Song: Pressing On
Tabbed by: Sandman8710

h=hammer down
/slide
*=palm mute
~=let ring out

Intro-
e---------------------------------|
B---------------------------------|
G---------------------------------|
D-6-3h4------------------3~p2-----|
A-4-----66-8~p6-8-6h8-44----------|
E-------44------6-----22----------|

Verse-
E---------------------------------|
B---------------------------------|  X3
G-6-66666-6-66666-3-33333---------|     Then, on forth time don't
D-6-66666-6-66666-3-33333-4-44444-|     palm mute anything.
A-4-44444-3-33333-1-11111-4-44444-|
E-------------------------2-22222-|
    *****   *****   *****   *****

Chorus part 1-
E-------------------------------------------------------------|
B-------------------------------------------------------------|
G-66/888-66/888-10 10/11 11 11-10 10/11 11 11-6-6-6-6---------|
D-66/888-66/888-10 10/11 11 11-10 10/11 11 11-x-x-x-x-6-6-6-6-| X2
A-44/666-44/666- 8  8/ 9  9  9- 8  8/ 9  9  9-4-4-4-4-6-6-6-6-|
E-----------------------------------------------------4-4-4-4-|
                  and after second time you go...
E---------------|
B---------------|
G---------------|
D-4-4-4-4-6-6-6-|
A-4-4-4-4-6-6-6-|     PAUSE
E-2-2-2-2-4-4-4-|

Chorus-

E-------------------      -----------------|
B-------------------      -----------------|
G-666---------------      -----------------|
D-666-6666-888-4444-   X4 -444444/666~~~~~-|
A-444-6666-888-4444-      -444444/666~~~~~-|
E-----4444-666-2222-      -222222/444~~~~~-|

Slow Part
E-----------------------------------------------------------------|
B-----------------------------------------------------------------|
G-6---6---6---6---5---5---5---5---6---6---6---6---8---8---8---5---|
D---6---6---6---6---6---6---6---6---6---6---6---6---6---6---6---6-|
A-----------------------------------------------------------------|
E-----------------------------------------------------------------|

Ending-
E-------------------|
B-------------------|
G---------6~~~~~~~~-|
D-4~~-6~~-6~~~~~~~~-|
A-4~~-6~~-4~~~~~~~~-|
E-2~~-4~~-----------|


Order of song:
Intro X4
Verse X4
Chorus Part 1 X2
Chorus X4
Verse X4
Chorus Part 1 X2
Chorus X4
Chorus X2
Intro X4
Part after chorus X1
PAUSE
Chorus SLOW X2
Chorus X2
Slow Part X3
Ending X1

http://www.ultimate-guitar.com/tabs/r/relient_k/pressing_on_ver2_tab.htm

Track 3
Song: Sadie Hawkins Dance
Artist: Relient K
Tabbed by: Daniel T
Email: dtien51@msn.com

Tuning: Standard

The original tab of this song is not my work but it is from another site by
Dan Widmayer and you can contact him at Rllerhckey@aol.com but I have made
slight modifications to tab it the way that I play it.


Intro
e-------------|-------------|-------------|-------------|
B--------11---|--------10---|--------8----|--------11---|
G----10-------|----10-------|----10-------|----10-------|
D-8-----------|-8-----------|-8-----------|-8-----------|
A-------------|-------------|-------------|-------------|
E-------------|-------------|-------------|-------------|

e-------------|-------------|-------------|-------------|
B----11---11--|----10---10--|----8---8----|-----11---11-|
G--10---10----|--10---10----|--10--10-----|---10---10---|
D-8----8------|-8----8------|-8---8-------|--8----8-----|
A-------------|-------------|-------------|-------------|
E-------------|-------------|-------------|-------------|

e-------------|-------------|-------------|-------------|
B----11---11--|----10---10--|----8---8----|-----11------|
G--10---10----|--10---10----|--10--10-----|---10--------|
D-8----8------|-8----8------|-8---8-------|--8----------|
A-------------|-------------|-------------|-------------|
E-------------|-------------|-------------|-------------|

Distorted Part
e|-----------------|-----------------|-----------------|-----------------|
B|-----------------|-----------------|-----------------|-----------------|
G|-3---3-3-3-3-3-3-|-----------------|-----------------|-8-8-8-8-8-8-8-8-|
D|-3---3-3-3-3-3-3-|-3---3-3-3-3-3-3-|-5---5-5-5-5-5-5-|-8-8-8-8-8-8-8-8-|
A|-1---1-1-1-1-1-1-|-3---3-3-3-3-3-3-|-5---5-5-5-5-5-5-|-6-6-6-6-6-6-6-6-|
E|-----------------|-1---1-1-1-1-1-1-|-3---3-3-3-3-3-3-|-----------------|


Verse (Palm Muted)
e|-----------------|-----------------|-----------------|-----------------|
B|-----------------|-----------------|-----------------|-----------------|
G|-3-3-3-3-3-3-3-3-|-----------------|-----------------|-8-8-8-8-8-8-8-8-|
D|-3-3-3-3-3-3-3-3-|-3-3-3-3-3-3-3-3-|-5-5-5-5-5-5-5-5-|-8-8-8-8-8-8-8-8-|
A|-1-1-1-1-1-1-1-1-|-3-3-3-3-3-3-3-3-|-5-5-5-5-5-5-5-5-|-6-6-6-6-6-6-6-6-|
E|-----------------|-1-1-1-1-1-1-1-1-|-3-3-3-3-3-3-3-3-|-----------------|

Chorus
e|------------|-------------|------------|----|
B|------------|-------------|------------|----|
G|-3--3--3--3-|-------------|------------|-8--|
D|-3--3--3--3-|-3--3--3--3--|-5--5--5--5-|-8--|
A|-1--1--1--1-|-3--3--3--3--|-5--5--5--5-|-6--|
E|------------|-1--1--1--1--|-3--3--3--3-|----|

e|------------|-------------|------------|--------------------|
B|------------|-------------|------------|--------------------|
G|-3--3--3--3-|-------------|------------|-8--8-8-8-8-8-8-8-8-|
D|-3--3--3--3-|-3--3--3--3--|-5--5--5--5-|-8--8-8-8-8-8-8-8-8-|
A|-1--1--1--1-|-3--3--3--3--|-5--5--5--5-|-6--6-6-6-6-6-6-6-6-|
E|------------|-1--1--1--1--|-3--3--3--3-|--------------------|

Bridge
e|--------------|--------------|---------------|-------------------|
B|--------------|--------------|---------------|-------------------|
G|-3--3-3-3-3-3-|--------------|---------------|-8-8-8-8-8-8-8-8---|
D|-3--3-3-3-3-3-|-3--3-3-3-3-3-|-5--5-5-5-5-5--|-8-8-8-8-8-8-8-8---|
A|-1--1-1-1-1-1-|-3--3-3-3-3-3-|-5--5-5-5-5-5--|-6-6-6-6-6-6-6-6---|
E|--------------|-1--1-1-1-1-1-|-3--3-3-3-3-3--|-------------------|

e|-------------------------|-------------------------|
B|-10-10-10-12-12-12-15-15-|-10-10-10-12-12-12-15-15-|
G|-------------------------|-------------------------|
D|-------------------------|-------------------------|
A|-------------------------|-------------------------|
E|-------------------------|-------------------------|

e|-------------------------|-----------------------|
B|-10-10-10-12-12-12-15-15-|-15-15-15-12-12-12-10--|
G|-------------------------|-----------------------|
D|-------------------------|-----------------------|
A|-------------------------|-----------------------|
E|-------------------------|-----------------------|

OR (I find this way easier to play!)

e|-----------------------------|-----------------------------|
B|----------14-14-14-17-17-17--|----------14-14-14-17-17-17--|
G|-16-16-16--------------------|-16-16-16--------------------|
D|-----------------------------|-----------------------------|
A|-----------------------------|-----------------------------|
E|-----------------------------|-----------------------------|

e|----------------------------|---------------------------|
B|----------14-14-14-17-17-17-|-17-17-17-14-14-14---------|
G|-16-16-16-------------------|-------------------16-16---|
D|----------------------------|---------------------------|
A|----------------------------|---------------------------|
E|----------------------------|---------------------------|

e-------------|-------------|-------------|-------------|
B--------11---|--------10---|--------8----|--------11---|
G----10-------|----10-------|----10-------|----10-------|
D-8-----------|-8-----------|-8-----------|-8-----------|
A-------------|-------------|-------------|-------------|
E-------------|-------------|-------------|-------------|

e-------------|-------------|-------------|-------------|
B--------11---|--------10---|--------8----|--------11---|
G----10-------|----10-------|----10-------|----10-------|
D-8-----------|-8-----------|-8-----------|-8-----------|
A-------------|-------------|-------------|-------------|
E-------------|-------------|-------------|-------------|

e-------------|-------------|-------------|-------------|
B----11---11--|----10---10--|----8---8----|-----11---11-|
G--10---10----|--10---10----|--10--10-----|---10---10---|
D-8----8------|-8----8------|-8---8-------|--8----8-----|
A-------------|-------------|-------------|-------------|
E-------------|-------------|-------------|-------------|

e-------------|-------------|-------------|-------------|
B----11---11--|----10---10--|----8---8----|-----11------|
G--10---10----|--10---10----|--10--10-----|---10--------|
D-8----8------|-8----8------|-8---8-------|--8----------|
A-------------|-------------|-------------|-------------|
E-------------|-------------|-------------|-------------|


-Interlude 2- She said "Your smooth..."
G|----------------------------------------------|
D|--------------------1-11-11-------------------|
A|-----------------------------11---------------|
E|--3-33-33--1-11-11--------------11--33--------|

G|------------------------------------------11--|
D|--------------------1-11-11-------------------|
A|-----------------------------11---------------|
E|--3-33-33--1-11-11---------------11----33-----|

order:
intro
distorted part x4
verse x2
chorus
distorted part x2
verse x2
chorus
bridge
intro
chorus x2

https://www.1christian.net/guitar/show.asp?ID=10256

Now batting cleanup...

Track 4
----------------------------------------------------------------------------
   			DOWN IN FLAMES - Relient K
----------------------------------------------------------------------------
Album: The Anatomy of the Tongue in Cheek
Label: Gotee Records
Tabbed by: mmmskittles
Email: skemo_the_fish@hotmail.com

Tuning: Standard

| /  slide up
| \  slide down
| h  hammer-on
| p  pull-off
| ~  let ring
| +  harmonic
| x  Mute note
| *  Palm mute

hey everybody. this song is pretty freakin awesome so i tabbed it out for ya. i'm
not quite sure about the end of the chorus or the end of the song but the rest of
the tab should be pretty accurate.

  Intro
e|-------------------------------------------------------------------------|
B|-11-11-9-9-11-11-9-9-11--8-8-9-9-8-8-9-9-8--11-11-9-9-11-11-9-9-11-------|
G|-8--8--8-8-8--8--8-8-8---8-8-8-8-8-8-8-8-8--8--8--8-8-8--8--8-8-8--8-8-8-|
D|-----------------------------------------(x3)----------------------8-8-8-|
A|-------------------------------------------------------------------6-6-6-|
E|-------------------------------------------------------------------------|

e|-------------------------------------------------------------------------|
B|-------------------------------------------------------------------------|
G|-8-xx-8-8--7-7-xx-7-7--8-8-xx-8-8--11-11-xxx-11-10-xxx-10----------------|
D|-8-xx-8-8--8-8-xx-8-8--8-8-xx-8-8--11-11-xxx-11-10-xxx-10----(x2)--------|
A|-6-xx-6-6--5-5-xx-5-5--6-6-xx-6-6--9--9--xxx-9--8--xxx-8-----------------|
E|-------------------------------------------------------------------------|

  Verse
e|------------------------------------------|
B|------------------------------------------|
G|-88888888--------------------1111-xx-1010-|
D|-88888888-88888888-999999999-1111-xx-1111-|
A|-66666666-88888888-999999999-9-9--xx-8-8--|
E|----------66666666-777777777--------------|
   ******** ******** *********
e|----------------------------------------------|
B|----------------------------------------------|
G|-88888888--------------------1111111110101010-|
D|-88888888-88888888-99999999--1111111111111111-|
A|-66666666-88888888-99999999--9-9-9-9-8-8-8-8--|
E|----------66666666-77777777-------------------|
   ** **    ** **    ** **     * *   * *
e|-------------------------------|
B|-------------------------------|
G|-4-4-4444-6-6-6666----------5~-|
D|-4-4-4444-6-6-6666-4-4-4444-5~-|
A|-2-2-2222-4-4-4444-4-4-4444-3~-|
E|-------------------2-2-2222----|

  Pre-Chorus
e|------------------------------------------------------------|
B|------------------------------------------------------------|
G|-4-44444666666667777777777777-44--------------44------------|
D|-4-44444666666667777777777777-44-4-4444444444-44-4-44444444-|
A|-2-22222444444445555555555555-22-4-4444444444-22-4-44444444-|
E|---------------------------------2-2222222222----2-22222222-|
     **************************
  Chorus
e|---------------------------------------------------|
B|---------------------------------------------------|
G|-8-8888888-----------11-11111111111111-------------|
D|-8-8888888-9-9999999-11-11111111111111-8-88888888--|
A|-6-6666666-9-9999999-9--9-9-9-9-9-9-9--8-88888888--|
E|-----------7-7777777-------------------6-66666666--|

e|-------------------------------------------------------------------------|
B|-------------------------------------------------------------------------|
G|-----------11-11111111111111-8-8888-6-6666---------5~--------------------|
D|-9-9999999-11-11111111111111-8-8888-6-6666-------------------------------|
A|-9-9999999-9--9-9-9-9-9-9-9--6-6666-4-4444--10~-6~-----------------------|
E|-7-7777777----------------------------------8----------------------------|
     *******    * * * * * * *    ****   ****

(the pre-chorus also = the post-chorus)

  Solo (Lead Guitar)
e|-------------6-----------------------6-----6---6-------------6-----------|
B|-6h7-7-6h7 7---7-7-6h7-7-6h7-7-6h7-7---7-7---7---6h7-7-6h7-7---7-7-6h7-7-|
G|-------------------------------------------------------------------------|
D|-------------------------------------------------------------------------|
A|-------------------------------------------------------------------------|
E|-------------------------------------------------------------------------|

e|-------------6-|
B|-6h7-7-6h7-7---|
G|---------------|
D|---------------|
A|---------------|
E|---------------|

  Guitar 2:
e|-------------------------------------------------------------------------|
B|-------------------------------------------------------------------------|
G|-11------------------11------------------11------------------11----------|
D|-11-1111-99-13-1111--11-1111-99-13-1111--11-1111-99-13-1111--11-1111-99--|
A|-9--1111-99-13-1111--9--1111-99-13-1111--9--1111-99-13-1111--9--1111-99--|
E|----9-9--77-11-9-9------9-9--77-11-9-9------9-9--77-11-9-9------9-9--77--|

Then play it all over again, except skip the palm muted part of the verse.

Ending (acoustic)

e|-2-2-222-2-22-2222-2-2-222-222-4444-|
B|-4-4-444-2-22-2222-4-4-444-222-6666-|
G|-4-4-444-3-33-3333-4-4-444-333-6666-|
D|-4-4-444-4-44-4444-4-4-444-444-6666-|
A|-2-2-222-4-44-4444-2-2-222-444-4444-|
E|-2-2-222-2-22-2222-2-2-222-222-4444-|

e|-7-7-777-6-66-6666-5-5-555-4-44-4444-2-2-222-2-22-2222-2-2-222-222-4444--|
B|-7-7-777-6-66-6666-5-5-555-4-44-4444-4-4-444-2-22-2222-4-4-444-222-6666--|
G|-8-8-888-7-77-7777-6-6-666-5-55-5555-4-4-444-3-33-3333-4-4-444-333-6666--|
D|-9-9-999-8-88-8888-7-7-777-6-66-6666-4-4-444-4-44-4444-4-4-444-444-6666--|
A|-9-9-999-8-88-8888-7-7-777-6-66-6666-2-2-222-4-44-4444-2-2-222-444-4444--|
E|-7-7-777-6-66-6666-5-5-555-4-44-4444-2-2-222-2-22-2222-2-2-222-222-4444--|

repeat.

============================================================================

http://www.ultimate-guitar.com/tabs/r/relient_k/down_in_flames_tab.htm

Track 5
-----------------------------------------------------------------------
                 Maybe It's Maybeline- Relient K
-----------------------------------------------------------------------
Tabbed by: Daniel T or cgplaya
Email: dtien51@msn.com ßcomments, concerns, date offers can be sent to my email that I
never check anyways btw..im from harker so that should turn off about ¾ of the girls.

Tuning: Standard (EADGBe for all of the newbs...lol)

Intro:
e|---------5---------------5---------9-10-7---9-10-3--2--0-0----------|
B|-7-5-7-----8-7-5-7-5-7-----8-7--------------------------------------|
G|-------7---------------7--------------------------------------------|
D|--------------------------------------------------------------------|
A|--------------------------------------------------------------------|
E|--------------------------------------------------------------------|

e|---------5---------------5---------9-10-7---9-10-15--14---12-12-----|
B|-7-5-7-----8-7-5-7-5-7-----8-7--------------------------------------|
G|-------7---------------7--------------------------------------------|
D|--------------------------------------------------------------------|
A|--------------------------------------------------------------------|
E|--------------------------------------------------------------------|

Verse: (No Guitar But I Tabbed It Anyways)
e|-------------------------|
B|-------------------------|
G|-7-----------------7-----|
D|-7-x8--9-----5-----7-x8--|
A|-5-----9-x8--5-x8--5-----|
E|-------7-----3-----------|

Pre-Chorus:
e|----------------------------------------------|
B|----------------------------------------------|
G|--4-----6-----7-----9-----11----12-11-9-9-11--|
D|--x-x4--x-x4--x-x4--x-x4--x—x8--x--x--x-x-x---|
A|--2-----4-----5-----7-----9-----10-9--7-7-9---|
E|----------------------------------------------|

Chorus:
e|------------------------------------------|
B|------------------------------------------|
G|-7----------------------------------------|
D|-7-x16--7------5--------------5-----7-----|
A|-5------7-x16--5-x8--*pause*--5-x8--7-x8--|
E|--------5------3--------------3-----5-----|

Interlude/Ending/Outro: (Really listen to song carefully for timing)
e|-----------------------------------------------|
B|-----------------------------------------------|
G|------------6h7-----------6h7---7---6---7---6--|
D|--7-7-7-7-9-----7-7-7-7-9-----9---7---7---7----|
A|-----------------------------------------------|
E|-----------------------------------------------|

Riff with Last Chorus:
e|-----------------------------|
B|-----------------------------|
G|--3-----4-----5-----6-----7--|
D|--x-x4--x-x4--x-x4--x-x4--7--|
A|--1-----2-----3-----4-----5--|
E|-----------------------------|

The Lineup:) ßdo u get it? Colon/smilely face...sorri if im just being lame
Item:		      Quantity:
Intro                x1
Verse                x2
Pre-Chorus           x3
Chorus               x2
Intro                x1
Verse                x2
Pre-Chorus           x3
Chorus               x2
Interlude            X3
Chorus w/ Riff       x1

^ Looks like a shopping list...lol

| /  slide up
| \  slide down
| h  hammer-on
| p  pull-off
| ~  vibrato
| +  harmonic
| x  Mute note
=======================================================================

http://www.ultimate-guitar.com/tabs/r/relient_k/maybe_its_maybeline_tab.htm

Track 6
Relient K
Breakdown
Anatomy of the Tongue in Cheek
Tabbed by WingedCousin

Intro
Palm mute this intro

e----------------------------------------------------|
B----------------------------------------------------|
G--9-9-9-9-9-9-7-7-7-7-7-7-6-6-6-6-6-6-6-6-6-6-6-6---|
D----------------------------------------------------|
A----------------------------------------------------|
E----------------------------------------------------| x2

e-------------------------------|
B-------------------------------|
G--9-9-9-9-9-9-7-7-7-7-7-7-6----|  for this there is about twenty-six
D-------------------------------|  "strums" on the 6 with the palm mute
A-------------------------------|  slowly being removed
E-------------------------------|

This part is (I think) played with two guitars with one playing the part below.
Guitar 1
e------------------------------------|
B------------------------------------|
G-9-9-9-9-9-7-7-7-7-6-6-6-6-6-6-6-6--|
D------------------------------------|
A------------------------------------|
E------------------------------------|

e------------------------------------|
B------------------------------------|
G-9-9-9-9-9-7-7-7-7-7-6-6-6-6-6-7-6--|
D------------------------------------|
A------------------------------------|
E------------------------------------|

e----------------------------------------------------|
B----------------------------------------------------|
G-9-9-9-9-9-7-7-7-7-7-6-6-6-6-6-6-6---6---6-7-7/6----|
D-----------------------------------7---7---------7--|
A----------------------------------------------------|
E----------------------------------------------------|

Guitar 2
e--------------------------------------|
B--------------------------------------|
G-9-9-9-9-9-7-7-7-7-7------------------|
D-9-9-9-9-9-7-7-7-7-7-7-7-7-7-7-7-7-7--|
A-7-7-7-7-7-5-5-5-5-5-7-7-7-7-7-7-7-7--|
E---------------------5-5-5-5-5-5-5-5--| x3


Verse:
I'm not sure how often to play the notes but I think the amounts are correct.
If not, then listen to the cd.

e-----------------------------------------------------------------------|
B-----------------------------------------------------------------------|
G-----6-7-7-7-7-7-7-7-7-7-7-7-7-7-7-7-4-4-4-4-4-4-4-4-7-7-7-7-9-9-9-9---|
D--7--6-7-7-7-7-7-7-7-7-7-7-7-7-7-7-7-4-4-4-4-4-4-4-4-7-7-7-7-9-9-9-9-7-|
A--7--4-5-5-5-5-5-5-5-5-5-5-5-5-5-5-5-2-2-2-2-2-2-2-2-5-5-5-5-7-7-7-7-7-|
E--5------------------------------------------------------------------5-| x2
                              (play about 18 times and palm mute this ^)

Prechorus

slide(/) the 775 to 997 after holding for a while
e----------------------------------------------------|
B----------------------------------------------------|
G--7-/-9------7-/-9-----7-/-9-----7-/-9-----7-/-9----|
D--7-/-9--7---7-/-9--7--7-/-9--7--7-/-9--7--7-/-9----|
A--5-/-7--7---5-/-7--7--5-/-7--7--5-/-7--7--5-/-7----|
E---------5----------5---------5---------5-----------|


Chorus:

e-------------------------------------------------|
B-------------------------------------------------|
G-----------7-7-7-7-7-----------9-9-9-9/11--------|
D-9-9-9-9-9-7-7-7-7-7-7-7-7-7-7-9-9-9-9/11--------|
A-9-9-9-9-9-5-5-5-5-5-7-7-7-7-7-7-7-7-7/-9--------|
E-7-7-7-7-7-----------5-5-5-5-5-------------------| x3

After the drums play the chorus 3 times it goes to the...

Bridge:
 This isn't perfect but I dont have time to figure it out so sorry.
If you can figure it out please correct me.

e----------------------------------------------|
B-------------3-2-0-2------------3-2-0---------|
G---2-----2--------------2---2----------2---2--|
D-------0---0----------0---0---0------2---0----|
A-0---0----------------------------------------|
E----------------------------------------------|


After the Bridge its the Intro again and then the chorus some more.

For one of the final chorus you only play two chords instead of five.

Outro:

e-----------|
B-----------|
G---7---9---|
D-9-7-7-9---|
A-9-5-7-7---|
E-7---5-----|

Hope I helped you all.  God Bless
-WingedCousin

http://www.christianguitar.org/csong15733/Relient-K-Breakdown

Track 7
Relient K
The Anatomy of the Tongue In Cheek
Those Words Are Not Enough
(c)2001 GoTee Records
Thomas(eastcoastpunk66@poppunk.com)
corrected by Chris Allen (strat_cat7@hotmail.com)

Intro
 [-----------------------------------------------------------]
 [-----------------------------------------------------------]
 [--------8--9-9-8---------13-11-9---------8--9-9-8-222222222]
 [-2--2-2-x--x-x-x--2--2-2-x--x--x--2--2-2-x--x-x-8-222222222]
 [-2--2-2-6--7-7-6--2--2-2-11-9--7--2--2-2-8--x-9-8-000000000]
 [-0--0-0-----------0--0-0----------0--0-0-------------------]
                                                     pm......

 [-----------------------------------------------------------]
 [-----------------------------------------------------------]
 [--------8--9-9-8---------13-11-9---------8--9-9-8-----2----]
 [-2--2-2-x--x-x-x--2--2-2-x--x--x--2--2-2-x--x-x-8---2------]
 [-2--2-2-6--7-7-6--2--2-2-11-9--7--2--2-2-8--x-9-8-0--------]
 [-0--0-0-----------0--0-0----------0--0-0-------------------]

VERSE:
C#  G#  A  E  B  *R1
C#  G#  A  E  B  C#
*R2  B  A  B

PRECHORUS:
(C#  B  A  B) x2

CHORUS:
(E  G#  A) x2

[Intro(2nd Half)]
[Verse]
play R1 at start of verse


BRIDGE:
(G#  A  E  B) x2

[Chorus 2x]

first ½  of R2 twice before verse
[Verse]
[Chorus 4x] (Fourth Time Acapella)

Outro:
E  G#  A  E  G#  A

     R1
     e----7-----7-----5-]
     b—5-----5-----5----]
     g------------------]

     R2
     e-------------------------12---12-14--]
     b--5-44--5-445--------12-----12-------]
     g--4-44--4-444--(3x)------------------]
     d-------------------------------------]
      *riff 2 goes 3 times then it's the chorus


  BRIDGE for guitar 2

     g---------------------------]
     d---------------------------]
     a--6~---7~---11~---9~--(2x)-]
     e---------------------------]

this should be more complete because I added missing riffs and fixed the
existing ones. Enjoy and God bless.

http://www.christianguitar.org/csong6282/Relient-K-Those-Words-Are-Not-Enough

Track 8
Tuning:  Standard (EADGBe)

I have had a hard time finding a tab that was correct, so I sat down for a while
and tabbed this song out myself.

To get the strumming pattern, listen to the song.  It is a pretty easy song to
play once you get the chords down.  I don't know the exact names of all the
chords, but they are charted below.  Any Suggestions or comments, please
e-mail me. - - Mark Smedley  (grngint@hotmail.com)

(***Note:***  Each  /  means a single downstrum.)

Chords Used:

      E   - 022100
      A2  - 002200
      C#* - 046600
      B*  - 024400
      C*  - 035500
      F#* - 244300
      A*  - 577600

[Verse 1:]

E	    A2	  C#*       B*
Am I at the point   of no improvement?
E	    A2      C#*         B*
What of the death I still dwell in?
E	 A2	      C#*     B*
I try to excel, but I feel no movement.
E        A2	      C#*	   B*
Can I be free of this unreleasable sin?


[Chorus:]

E     A2   C#*	       B*
Never underestimate my Jesus.
E		       A2
You're telling me that there's no hope.
    C#*		     B*
I'm telling you your wrong.
E     A2   C#*         B*
Never underestimate my Jesus
E	       A2
When the world around you crumbles
C#*        B*                 E     | A2 | C#* | B* | E | A2 | C#* | B* |
He will be strong, He will be strong.


[Verse 2:]

E             A2
I throw up my hands
C#*             B*
"Oh, the impossibilities"
E	       A2
Frustrated and tired
         C#*       B*
Where do I go from here?
E		  A2                 C#*          B*
Now I'm searching for the confidence I've lost so willingly
E                A2        C#*                B*
Overcoming these obstacles   is overcoming my fear  (Oh)


[Chorus 2:]

E     A2   C#*	       B*
Never underestimate my Jesus.
E		       A2
You're telling me that there's no hope.
    C#*		     B*
I'm telling you your wrong.
E     A2   C#*         B*
Never underestimate my Jesus
E	       A2
When the world around you crumbles
C#*        B*                 (N.C. Go to bridge here)
He will be strong, He will be strong


[Bridge:]

E//		 A2//
I think I can't, I think I can't
C#*             C*
But I think you can, I think you can
E//		 A2//
I think I can't, I think I can't
C#* 		C*
But I think you can, I think you can
F#*		 A*
Gather my insufficiencies and
		   E
place them in your hands,
A2                 C#*
place them in your hands,
B*                 E    | A2 | C#* | B* | E | A2 | C#* | B* |
place them in your hands.


[Chorus 3:]

E     A2   C#*	       B*
Never underestimate my Jesus.
E		       A2
You're telling me that there's no hope.
    C#*		     B*
I'm telling you your wrong.
E     A2   C#*         B*
Never underestimate my Jesus
E	       A2
When the world around you crumbles
C#*        B*
He will be strong.
E     A2   C#*	       B*
Never underestimate my Jesus.
E		       A2
You're telling me that there's no hope.
    C#*		     B*
I'm telling you your wrong.
E     A2   C#*         B*
Never underestimate my Jesus
E	       A2
When the world around you crumbles
C#*        B*                 E     | A2 | C#* |
He will be strong, He will be strong.


[Outro:]

B*               | E | A2 | C#* |
He will be strong.
B*               | E | A2 | C#* |
He will be strong.
B*               | E | A2 | C#* | B* | E |
He will be strong.
https://www.1christian.net/guitar/show.asp?ID=6014

Track 9
Song: Lion Wilson(3 Part Guitar Version)
Artist: Relient K
Album: Anatomy Of Tongue In Cheek
Tabbed By: Lorne Singbiel(The One And Only)

                       **********************************************
                       *      Lion Wilson(3 Part Guitar Version)    *
                       **********************************************

GUITAR 1 (Main Guitar) - Starts off before the other 2 guitars cut in.
e|-------------------------------------------------------------------|
B|-------------------------------------------------------------------|
G|-------------------------------------------------------------------|
D|--1-2--2h4--2-1--1h2---------------1-2--2h4--2-1--1h2--------------|
A|-------------------------------------------------------------------|
E|-------------------------------------------------------------------|

e|-------------------------------------------------------------------|
B|-------------------------------------------------------------------|
G|-----------------1----2----1--/4--3----2---------------------------|
D|--1-2--2h4--2-1-----------------------------4----6-----------------|
A|-------------------------------------------------------------------|
E|-------------------------------------------------------------------|

GUITAR 2 - Cuts in along with Guitar 3 just after that first little part
at the beginning of guitar 1 is played(you'll know exactly what I mean if
you're familiar with the real song).
e|-------------------------------------------------------------------|
B|-------------------------------------------------------------------|
G|-------------------------------------------------------------------|
D|-------------------------------------------------------------------|
A|--11-11-11-11-11-11-11-11-11-11-11-11-9-9-9-9-11-11-11-11-11-11-11-|
E|-------------------------------------------------------------------|

e|-------------------------------------------------------------------|
B|-------------------------------------------------------------------|
G|-------------------------------------------------------------------|
D|-------------------------------------------------------------------|
A|11-11-11-11-11-9-9-9-9-11----12----11--14--13-----12----9----11----|

GUITAR 3 - This part is played with power chords and sounds so nice along
with the rest. Play these chords at exactly the same beat as guitar 2 and
use your palm to stop it after each strum.
e|-------------------------------------------------------------------|
B|-------------------------------------------------------------------|
G|--6-6-6-6---------9-9-9-9-8-8-8-8-6-6-6-6---------9-9-9-9-8-8-8-8--|
D|--6-6-6-6-7-7-7-7-9-9-9-9-8-8-8-8-6-6-6-6-7-7-7-7-9-9-9-9-8-8-8-8--|
A|--4-4-4-4-7-7-7-7-7-7-7-7-6-6-6-6-4-4-4-4-7-7-7-7-7-7-7-7-6-6-6-6--|
E|----------5-5-5-5-------------------------5-5-5-5------------------|

e|-------------------------------------------------------------------|
B|-------------------------------------------------------------------|
G|--6----5----4-----8-----7----4-------------------------------------|
D|--6----5----4-----8-----7----4----4--------------------------------|
A|--4----3----2-----6-----5----2----4--------------------------------|
E|----------------------------------2--------------------------------|

This is a cool song originally sung without music but I listened to each
of the singers and applied a guitar to play each note each singer sings
and tried it out on my guitar and the guitars harmonize so nicely together.
I recorded myself playing each part separately and edited them together and
it sounds kinda neat. if you can't figure out how to play this song on your
own then     E-mail me and ask for the song and I'll send you the recording
I made so you can hear it and play along. E-mail me at
christiantabs@hotmail.com.

http://www.christianguitar.org/csong9411/Relient-K-Lion-Wilson

Track 10
Song: I'm Lion-O
Band: Relient K
Albumn: The Anatomy of the Tongue and Cheek
Label: Gotee Records c 2001

power chords
"this is the newer version of the song that is on their new
album, not the old lion-o song. I think this one is a lot
better. I just saw them at Rock the Universe last night, they
rock!"

intro
E A C# B

(play the same chords through the first verse and chorus.
The rhythm changes througout the song though.)

[verse1]
E  A  C#  B

[Chorus]


theres a little lead riff right here
e
B-4-5-6-5-4-5 (play twice)
G
D
A
E

the chords change on this verse
[verse2]
C#  B  A  B

E A C# B

(chorus like 2 more times)

thats pretty much it, any questions just email me at
JonnyTgoode@hotmail.com

http://www.christianguitar.org/csong5535/Relient-K-I'm-Lion-O

Track 11
What Have You Been Doing Lately?
Relient K
The Anatomy Of The Tongue In Cheek
Written by: Matthew Thiessen
Copyright 2001 Gotee Music (BMI)-Admin. by EMI CMP
Tabbed By: Josiah Pagoota (n2Jesus88@yahoo.com)

Standard Tuning: EADGBe

Chorus:

e--5--55--55--55--55--55--55--55-------------------------------------|
B--5--55--55--55--55--55--55--55-------------------------------------|
G--6--66--66--66--66--66--66--66---4-4-4-4-/7-7-7-7-4-4-4-4----------|
D--7--77--77--77--77--77--77--77---4-4-4-4-/7-7-7-7-4-4-4-4-2-2-2-2--|
A----------------------------------2-2-2-2-/5-5-5-5-2-2-2-2-2-2-2-2--|
E-----------------------------------------------------------0-0-0-0--|

Verse:

e-------------------------------------|
B-------------------------------------|
G------------------7------------------|
D--7-xxxxxx7-xxxxxx7-xxxxxx-22222222--|
A--7-xxxxxx7-xxxxxx5-xxxxxx-22222222--|
E--5-xxxxxx5-xxxxxx5-xxxxxx-00000000--|

Do the above part twice then do this twice:
e----------------------------------------|
B----------------------------------------|
G----------------------------/7-777777---|
D--7-777777\2-222222/4-444444/7-777777---|
A--7-777777\2-222222/4-444444/5-555555---|
E--5-555555\0-000000/2-222222/5-555555---|

Pre-Chorus:  PALM MUTE!!!!!
e-------------------------------------------------------------------|
B-------------------------------------------------------------------|
G--77777777------------------------77777777-------------------------|
D--7777777722222222444444447777777777777777222222224444444477777777-|
A--5555555522222222444444447777777755555555222222224444444477777777-|
E----------000000002222222255555555--------000000002222222255555555-|

e---------------------------------------------------------------|
B---------------------------------------------------------------|
G--7-7-7-7-------------------------7-7-7-7-9--(let it ring)-----|
D--7-7-7-7-2-2-2-2-4-4-4-4-7-7-7-7-7-7-7-7-9--------------------|
A--5-5-5-5-2-2-2-2-4-4-4-4-7-7-7-7-5-5-5-5-7--------------------|
E----------0-0-0-0-2-2-2-2-5-5-5-5---------0--------------------|

Break:
e---------------------------------------------------------------------|
B---------------------------------------------------------------------|
G-----------77-77-----------------------------------------------------|
D--77-77-77-77-77--66-66-77-77-7\6--44-44-44-44-4\2--44-44-44-44-4\2--|
A--77-77-77-55-55--66-66-77-77-7\6--44-44-44-44-4\2--44-44-44-44-4\2--|
E--55-55-55-55-55--44-44-55-55-5\4--22-22-22-22-2\0--22-22-22-22-2\0--|

REPEAT THE BREAK BUT AT THE END DO THIS:
e--22-22-22-22-2\0-------|
B--22-22-22-22-2\0-------|
G------------------------|

Then play and let ring for a measure:
e--------------|
B--0-----------|
G--0-----------|
D--0-----------|
A--------------|
E--------------|

Order of song is: Chorus, Verse1, PreChorus, Chorus, Verse2, PreChorus,
Chorus, Break(2x), Chorus, Break(2x)

That's it! it's a great song. Any questions or comments email me at
n2Jesus88@yahoo.com. Later!

http://www.christianguitar.org/csong7500/Relient-K-What-Have-You-Been-Doing-Lately?

Track 12
------------------------------------------------------------
        Relient K- May The Horse Be With You
------------------------------------------------------------

By:Scott Horton
Intro:
e|-------------------------------------------------------------------------|
B|-------------------------------------------------------------------------|
G|-67646 67642--------7--6-4-----------------------------------------------|
D|--------------------7--6-4-----------------------------------------------|
A|--------------P.M. -5--4-2-----------------------------------------------|
E|-------------------------------------------------------------------------|
Verse:
e|-------------------------------------------------------------------------|
B|-------------------------------------------------------------------------|
G|------7---4--7-----------------------------------------------------------|
D|--7---7---4--7-----------------------------------------------------------|
A|--7---5---2--5-----------------------------------------------------------|
E|--5----------------------------------------------------------------------|
Pre Chorus:
P.M.    open
e|-------------------------------------------------------------------------|
B|-------------------------------------------------------------------------|
G|-4--7-----9--------------------------------------------------------------|
D|-4--7--7--9--------------------------------------------------------------|
A|-2--5--7--7--------------------------------------------------------------|
E|-------5-----------------------------------------------------------------|
Chorus:
e|-------------------------------------------------------------------------|
B|-------------------------------------------------------------------------|
G|-----9--11--6-7--9-------------------------------------------------------|
D|-7---9--11--6-7--9--7----------------------------------------------------|
A|-7---7--9---4-5--7--7----------------------------------------------------|
E|-5------------------5----------------------------------------------------|

Listen to song for order. Have fun. And lots of those repeat .

http://www.christianguitar.org/csong5668/Relient-K-May-The-Horse-Be-With-You

Track 13
sus= sustain

Intro
	Csus
	Should I start this song off with a question, Or should I say what?s on my mind,
	C			        G
	add a cello here, to add a sad impression, cause I?m not looking forward to leaving
			C
	 my friends all behind.
Verse
	         C		  F		      G                              C
	I didn?t vote no I?m not proud cause I?m Canadian and I?m not allowed,
				       F		      G				C
	give it a go, or throw in the towel, stand all alone, or swing through the crowd,
	C	G		       C	      A	            G	         F
	No one around to help you decide, it?s time to make up your mind, it?s time to
		       G
	make up your mind

Pre Chorus
e--------------------------------------------------------------|
b--------------------------------------------------------------|
g--------------------------------------------------------------|
d-2-------------2--------------2--------------2-3--3-3-3-2-----|    (2x)
a--5-3--3-3-3-5-5-3--3-3-3-5-5-3--3-3-3-5-5--------------------|
e--------------------------------------------------------------|

2 Pre Chorus
e---------------------------------------------------|
b---------------------------------------------------|
g---------------------------------------------------|
d----2--2-2-----2--2-2--2-2-2-2--2--2-2-2-2--2------|
a-3-5--------3-5------------------------------------|
e---------------------------------------------------|

Chorus Lead
b-1-1-3-1-1-1-3- repeat all through chorus

Chorus
		 C	       F                     A			          F
	By the way side we fell, he said it?s my way or the highway to hell,
		    C		   F		    A			        F
	It?s your decision chose it well, he said it?s my way or the highway to hell,  (2x)


2 Verse
	C		      C		         F		           G		C
	Decisions we make life?s an election, precision we take seeking direction,
			C			          F		       G
	but there?s so many lies, unsure where we can look, but we?ve got a guide,
			     C		     G		          C        A	G
	a really thick hand book,  No one around to help you decide, it?s time to make up
	        F		G
	your mind, it?s time to make up your mind

Outro
	Csus						Csus
	The channels are sold do you wanna guess one, if that scares you to death my that

	be a lesson, it?s your decision make it the best one,

	or should I end this song off with a question

http://www.ultimate-guitar.com/tabs/r/relient_k/my_way_or_the_highway_to_hell_tab.htm?1281309417

Track 14- How many times do I have to say it???? It's just a conversation! SHEESH!! Lol..

http://www.itsjustaconversationbtwthisisafakesite.com

Track 15
Band: Relient K
Song: The Rest is Up to You
Written by: Matthew Theissen
Tabbed by: Alex C.

Intro
-----------|
-----------|
-----------|
7x-9x-9/14-|
7x-9x-9/14-|
5x-7x-7/12-|

Verse
----------------|
----------------|
----------------|
-22x-4/6----4/2-|
--------44x-----|
----------------|

Prechorus
-------------------------------------------|
-------------------------------------------|
----9---6---------------------77-88-1010-9-|
-10-9-9-6-6-7------------77-99-------------|
-10-7-9-4-6-7--77-99-1010------------------|
-8----7---4-5------------------------------|

Chorus
-----------------------------|
-----------------------------|
-9x-9x-7x-----9-9-7---7---9--|
-9x-9x-7x-7-9-9-9-7-7-7-9-9--|
-7x-6x-5x-7-9-7-6-5-7-5-9-7--|
----------5-7-------5---7----|

Bridge (for the first 022 and third, just strum once and let it ring)
-------------------------------|
-------------------------------|
---6-----9-7-4----6-2---9-7-2--|
-4-6-7-2-9-7-4--4-6-2-2-9-5-4--|
-4-4-7-2-7-5-2--4-4-0-2-7-5-4--|
-2---5-0--------2-----0--------|

http://www.christianguitar.org/csong15743/Relient-K-The-Rest-is-Up-to-You

Track 16
Failure To Excommunicate
Tabbed by: vyper77

E-10-10-10-10-10h9-9-9-9-9h12-12-12-12-12h10-10-10-11-10-10-|
B-----------------------------------------------------------|
G-----------------------------------------------------------|
D-----------------------------------------------------------|
A-----------------------------------------------------------|
E-----------------------------------------------------------|

Play this part twice.

E-10-10-10-10--9-9-9-9--12-12-12-12--11-11-11-11------------|
B-----------------------------------------------------------|
G-----------------------------------------------------------|
D-----------------------------------------------------------|
A-----------------------------------------------------------|
E-----------------------------------------------------------|

Verse 1:

B
It's the principle
G
it's the issue
D                  A
that your priciple will dismiss you.

B                       G
Because you don't fit into that all-American box
D                        A
that coffin created for created thought.

Chorus:

G
Its disgusting
A
his priority
B                       D
And how were entrusting him
     A      G
with authority

G                A                             D
The gavels gone down before he looked in your heart
                 B       A                     G      A
He finished this racism before he reached the start.


Jesus loved the outcasts.
He loves the one the world just loves to hate.
And as long as there's a heaven.
There'll be a Failure to Excommunicate.

E-10-10-10-10-10h9-9-9-9-9h12-12-12-12-12h10-10-10-11-10-10-|
B-----------------------------------------------------------|
G-----------------------------------------------------------|
D-----------------------------------------------------------|
A-----------------------------------------------------------|
E-----------------------------------------------------------|

Play this part three times.

E-10-10-10-10--9-9-9-9--12-12-12-12--11-11-11-11------------|
B-----------------------------------------------------------|
G-----------------------------------------------------------|
D-----------------------------------------------------------|
A-----------------------------------------------------------|
E-----------------------------------------------------------|

Verse 2:

B
The world just keeps you
G
at an arm's length.
D               A
Every week you work up the strength

B                            G
to fight the flames that are hurled, let you faith shine
       D
right through
A
you know its the world verses Jesus and you.

Chorus:

G
Its disgusting
A
his priority
B                       D
And how were entrusting him
     A      G
with authority

G                A                             D
The gavels gone down before he looked in your heart
                 B       A                     G      A    B
He finished this racism before he reached the start.


Jesus loved the outcasts.
He loves the one the world just loves to hate.
And as long as there's a heaven.
There'll be a Failure to Excommunicate.

http://www.ultimate-guitar.com/tabs/r/relient_k/failure_to_excommunicate_tab.htm?314448896

Track 17
Less Is More
Relient K
Capo 1st fret
Tabbed by: Anonymous

E              Asus2        B9         E        Asus2                 B9
Jesus, I pray, take all my mistakes. Throw them away. Destroy them for my sake.

     E          Asus2             B9          E      Asus2       B9
 Jesus, I call out ?cause I?m sorry. Because I fall so short of your glory.

  C#9             Asus2    B9               E                         Am
To the best of my ability, I?m practicing humility, and I lay myself before ?cause less is

 E
more.

E   Asus2  B9 E     x2

(chorus)
E          Asus2 B9          E                    Asus2   B9                    E
All that I have I lay before with my pride on the floor. ?cause to you less is more.(repeat)

C#9         Asus2             E                   B9                    C#9
I pour out myself, all that I am. You love me so much that you fill me again. And may

      Asus2                            E       B9                    C#9
these words, on my heart, on my lips, somehow mean so much more than this. Jesus, I

                     Am
pray, know what I?m trying to say. (chorus)

C#9         Asus2                  E
I pour out myself, before you, oh Lord. I hold nothing

  B9                        C#9                 Asus2                       E
back, ?cause to you less is more. And may these words, on my heart, on my lips,

    B9                                            C#9
somehow mean so much more than this. Jesus, I pray, know what I?m trying to say.

  E       Asus2    B9              E            Asus2                                B9           E
Jesus, I plead, please purify me. Make my heart clean, drench me with your mercy. Jesus,

  Asus2                B9               E          Asus2                              B9    C#9
I pray, I love you, I need you for the rest of my days, I swear I will seek you. To the best

      Asus2                     B9                  E     Am                           E
of my ability, I?m practicing humility, and I lay myself before, cause less is more.

E A D G B E
E:         0-2-2-3-0-0-|
Asus2:     X-0-2-2-0-0-|
B9:        X-2-4-4-0-0-|
C#9:       X-4-6-6-0-0-|

http://www.ultimate-guitar.com/tabs/r/relient_k/less_is_more_crd.htm

It's not over yet...I've got one more tab up my sleeve...

Track 18/Bonus/Hidden Track
-----------------------------------------------------------
               Combos and Skittles-Relient K
-----------------------------------------------------------
Tabbed by: Daniel T
Email: dtien51@msn.com

Tuning: Standard

Verse 1:
E A2sus x2

Fill:
F#m Em F#m Am Bm

Verse 2:
E A2sus x2

Fill:
F#m Em F#m Am Bm

Chorus:
E A2sus x2
E F#m Am F#m Am Bm E

Finally, after 18 songs...I finished! I hope you enjoyed this one...I had to
tab 3 of the 18 songs. Look for my other album tabs: Mmhmm and soon to come
Two Lefts Don't Make a Right...But Three Do! If you enjoyed this please rate it!
comments
print report bad tab
3 comments total.
0 reply
welfkag wrote on December 20 2005, 08:01 pm

great job

0 reply
joelmoy wrote on May 12 2007, 03:38 pm

nice job

0 reply
Chris_G_09 wrote on June 17 2007, 11:07 pm

yes i know im being pretty picky but i just wanted to let you know the correct names for these chords in For the Moments I Feel Faint
C#* (046600) = C#m7
B* (024400) = Bsus4
C* (035500) = Cmaj7
F#* (244300) = F#7add11
A* (577600) = Aadd9

good tab

I want to post or [tab]
guest
You may want to rate the tab now too:
select rating
Please do not post tabs as comments. Select "correction" instead!