Oops, an error
Loading. Please wait.

Two Lefts Dont Make A Right But Three Do Tab

6,368 views 6 this week
no commentswrite comment
1 2 3 4 5
accurate
x 5
add to favorites launch autoscroll
font size
0
reset
Autoscroll
+/-
esc
set tempo
stop
Contributor
WARNING: You are trying to view
                                    content from Ultimate-Guitar.com
                                    in an unauthorized application,
                                    which is prohibited.

                                    Please use an official Ultimate
                                    Guitar Tabs application for iPhone,
                                    iPad or Android to access legitimate
                                    chords, guitar, bass, and drum tabs
                                    from Ultimate-Guitar.com database.

                                    Type "ultimate guitar tabs" in Apple
                                    App Store's or Android Market's
                                    search to find the application.
-----------------------------------------------------------------
      Two Lefts Don't Make a Right...But Three Do-Relient K
-----------------------------------------------------------------

Tabbed By : Daniel T 
e-mail: dtien51@msn.com ß complaints, mother insults, feedback,
date offers, and money (can you send money through email? That
would be awesome) can be sent here. Comments: Hey, it's me again...
and again. But I hope you're enjoying my album compilations/tabs.
This is probably the last one I will submit...unless if Relient K
comes up with a new album (I'm sure it'll be great like the others)
because I'm not too familiar with their first album or deck the halls
or their EPs. Yes, I will include the links and the tabbers. COULD
YOU STOP BOTHERING ALRIGHT??? jk lol. I would like to apologize for
my random emotional behavior. So here I go again and I hope you enjoy
it and rate it if you do.

The Lineup:
1.	Chap Stick, Chapped Lips, and Things Like Chemistry
2.	Mood Rings
3.	Falling Out
4.	Forward Motion
5.	In Love With the 80's (Pink Tux to the Prom)
6.	College Kids
7.	Trademark
8.	Hoopes I Did It Again
9.	Overthinking
10.	I Am Understood?
11.	Getting Into You
12.	[Untitled Track] Just a random conversation
13.	Gibberish
14.	From End to End
15.	Jefferson, Aero Plane

Track 1
Title: Chapstick, Chapped Lips & Things Like Chemistry
Band: Relient K
Album: Two Lefts Don't Make a Right...But Three Do
Track #: 1
tabber: corey182__

Standard Tuning

*Note* In the 2nd Verse, 
the other guitarist plays something, 
its just basic power chords that are in my tab..
i just to lazy to tab them out lol.

Key:
.. = Palm Mute
/\ = Slides

Intro/Verse:    Ending
e|-------------|------|
B|-------------|------|
G|-44444444444-|------|
D|-xxxxxxxxxxx-|-2222-|
A|-22222222222-|-2222-|
E|-------------|-0000-|
                 ....

Pre-Chorus:
e|-------------------------------|
B|-------------------------------|
G|-----------------999-9-8-4-6-4-|
D|-222-444-666-999-999-x-x-x-x-x-|
A|-222-444-666-999-777-7-6-2-4-2-|
E|-000-222-444-777---------------|

e|-----------------------------|
B|-----------------------------|
G|-----------------999-9-8-4-6-|
D|-222-444-666-999-999-x-x-x-x-|
A|-222-444-666-999-777-7-6-2-4-|
E|-000-222-444-777-------------|

Chorus
e|-------------|---------|
B|-------------|---------|
G|-44444444444-|-4-----4-|
D|-xxxxxxxxxxx-|-4-2-4-4-|
A|-22222222222-|-2-2-4-2-|
E|-------------|---0-2---|

Verse:          Ending
e|-------------|------|
B|-------------|------|
G|-44444444444-|------|
D|-xxxxxxxxxxx-|-2222-|
A|-22222222222-|-2222-|
E|-------------|-0000-|
                 ....

Pre-Chorus:
e|-------------------------------|
B|-------------------------------|
G|-----------------999-9-8-4-6-4-|
D|-222-444-666-999-999-x-x-x-x-x-|
A|-222-444-666-999-777-7-6-2-4-2-|
E|-000-222-444-777---------------|

e|-----------------------------|
B|-----------------------------|
G|-----------------999-9-8-4-6-|
D|-222-444-666-999-999-x-x-x-x-|
A|-222-444-666-999-777-7-6-2-4-|
E|-000-222-444-777-------------|

Chorus
e|-------------|------------|
B|-------------|------------|
G|-44444444444-|-4-------44-|
D|-xxxxxxxxxxx-|-4-22-44-44-|
A|-22222222222-|-2-22-44-22-|
E|-------------|---02-22----|

Acoustic Part
e|-------------|
B|-------------|
G|-44444444444-|
D|-44444444444-|
A|-22222222222-|
E|-------------|

Ending Part 1:
e|----------|----------------|------------|
B|----------|----------------|------------|
G|----------|-44444444444444-|------------|
D|-6-4-2--4-|-xxxxxxxxxxxxxx-|-6666\5\4\2-|
A|-6-4-2--4-|-22222222222222-|-6666\5\4\2-|
E|-4-2-0--2-|----------------|-4444\3\2\0-|


Ending Part 2:
e|----------------------|
B|----------------------|
G|-------4444-4444-4444-|
D|-22222-4444-4444-4444-|
A|-22222-2222-1111-2222-|
E|-00000----------------|

Solo:
e|-------------------------------------|\
B|-17-16-14-16-14-12----12-14-16-14-12-| \
G|-------------------13----------------|  \
D|-------------------------------------|   \
A|-------------------------------------|    \
E|-------------------------------------|    / x2
                                           /
e|----------------------------------|     /
B|-17-16-14-16-14-12----12-14-16-12-|    /
G|-------------------13-------------|   /
D|----------------------------------|  /
A|----------------------------------| /
E|----------------------------------|/

During the ending part,
the solo is played at first, 
then just go into the ending part.

Comments and corrections are welcome...if u want
you can email them to me @ Dumbfrom____88@Hotmail.com
if it doesnt mention something about my tab, i will
delete it..lol..plz only comments or corrections

I think thats all of it,
if its not,
it will just be repeating a Verse or Chorus...
its all in there somewhere.


Track 2
Song: Mood Rings
Artist: Relient K
Tabbed by: _TheBassist01_
Standard Tuning

Verse 1: 
//    Guitar 1 
||    e|---------------------------------7-7\-|
||    B|-----------------------9---9----7-----|
||    G|-8----------------88---9---9------8---|
||    D|-9---6---6-----9-9-9---6---7---9------|
||    A|-7---7---7----9-6--7-------0----------|
||    E|-----4---5---7------------------------|
||    
||    Guitar 2 (palm mute)
||    e|--------------------------------------|
||    B|--------------------------------------|
||    G|-9)-------------8)-9)-----------------|
||    D|-9)--6)--7)--9)-9)-9)--6)--7)--9)-----|
||    A|-7)--7)--7)--9)-6)-7)--7)--7)--9)-----|
||    E|-----4)--5)--7)--------4)--5)--7)-----|
\\       ) means keep strumming until chord change


1st part of Chorus:
//    G1 
||        b|------------|  b|--|
||    e|-----------------7--7)--|
||    B|-----------------10b12)-|
||    G|-8b99999:9-9:9-9:-------|
||    D|------------------------|
||    A|------------------------|
||    E|------------------------|
||       b means bend, hold bend for b|-|
||       : means short, mute after the strum
||    
||    G2 (w/dist)
||    e|-------------------------------------------------|
||    B|---------------------------------------------999-|
||    G|---------6-6x------------------6-6x----------999-|
||    D|-4-44444-6-6x6-6/9-9)---444444-6-6x6-6/9-9)------|
||    A|-4-4444404-4x7-7/9-9)--044444404-4x7-7/9-9)------|
\\    E|-2-220220----4-4/7-7)--02220220----4-4/7-7)------|

G2                   (play 2x)
e|---------------------------|--------|
B|--------------------------*|--------|
G|-------------------9)--8)--|--------|
D|-7-7:-----9-9:-----9)--9)--|-7)--9)-|
A|-7-7:-----9-9:-----7)--6)-*|-7)--9)-|
E|-5-5:-----7-7:-------------|-5)--7)-|


2nd part of Chorus:
//    G1               (play x4)
||    e|-----------------------|
||    B|-999999\---9999999:---*|
||    G|-----------------------|
||    D|-----------------------|
||    A|----------------------*|
||    E|-----------------------|
||    
||    G2               (play x4)
||    e|-----------------------|
||    B|----------------------*|
||    G|-9999:-9:--------------|
||    D|-9999:-9:--99\77/999:--|
||    A|-7777:-7:--99\77/999:-*|
\\    E|-----------77\55/777:--|


(Verse 2)
Bass fill
G|----------------
D|----------------
A|-7)-------------
E|-----4)--5)--7)-

G2 
e|----------------|
B|----------------|
G|-9)-------------|
D|-9)--6)--7)--9)-|
A|-7)--7)--7)--9)-|
E|-----4)--5)--7)-|

 b|------------|  b|--|
    e|-----------------7--7)--|
    B|-----------------10b12)-|
    G|-8b99999:9-9:9-9:-------|
    D|------------------------|
    A|------------------------|
    E|------------------------|

    e|-----------------------|
    B|-999999\---9999999:---*|
    G|-----------------------|
    D|-----------------------|
    A|----------------------*|
    E|-----------------------|



(Bridge)
G2                                      
e|-------------------------------------------|
B|------------------------------------------*|  x2
G|--99----------------99---------------------|
D|--9999xxxx771111999x9999xxxx771010101010x--|
A|--7799xxxx771111999x7799xxxx771010101010x-*|
E|----77xxxx559-9-777x--77xxxx558-8-8-8-8-x--|

e|-------------------------------------|
B|-------------------------------------|
G|-------------------------------------|
D|-6644----2266444-6644----2)--11-9--7-|
A|-7766----4477666-7766----4)--11-9--7-|
E|---77----55--777---77----5)--9--7--5-|

e|---------------------------------7-7\|
B|-----------------------9---9----7----|
G|-8----------------88---9---9------8--|
D|-9---6---6-----9-9-9---6---7---9-----|
A|-7---7---7----9-6--7-------0---------|
E|-----4---5---7-----------------------|

e|----------11--|
B|-----12-12----|
G|---11--8----8-|
D|--9---------9-|
A|------------7-|
E|--------------|


(Outro)
//                                                            1st   |2nd
||e|-------------------------------------------------------=--------|---
||B|9-----9-7-----7-5-----5-5-----5-5-----5-4-----4-2-----2=1-----1*|-1-
||G|---9---------------6-------5-------6-------4-------2---=---2----|-2-
||D|-----------9-------------------------------------------=--------|-2-
||A|-------------------------------------------------------=-------*|-3-
||E|-------------------------------------------------------=--------|---
||       play 1st ending, repeat, end with 2nd ending instead
||    
||    G2 (clean)                                                =  1st   |2nd
||e|--------------------------------------------------------=--------|---
||B|--------------------------------------------------------=-------*|---
||G|--------------------------------------------------------=--------|---
||D|---6---6---4---4---7---7---7---7---6---6---4---4--------=--------|---
||A|-7---7---6---6-------------------4---4-------------7---7=--7---7*|---
||E|-----------------5---5---8---8-----------7---7---5---5--=8---8---|-8-
\\

Thanks, please rate it after you've learned it.

http://www.ultimate-guitar.com/tabs/r/relient_k/mood_rings_tab.htm

Track 3
Falling Out - Relient K
E-mail: stealthunknown7@hotmail.com
Tabbed By: Black Label

Intro:
e|----------------------------------|
B|----------------------------------|
G|-7-7-7-7-8-8-8-8-7-7-7-7-6-6-5-5--|
D|--8-8-8-8-8-8-8-8-8-8-8-8-8-8-8-8-|
A|----------------------------------|
E|----------------------------------|
NO LYRICS




Pre-Verse:
e|---X8|---X8|---X8|---X4|---X4|
B|-----|-----|-----|-----|-----|
G|-3---|-5---|-8---|-----|-----|
D|-3---|-5---|-8---|-5---|-3---|
A|-1---|-3---|-6---|-5---|-3---|
E|-----|-----|-----|-3---|-1---|
NO LYRICS




Verse 1:(X2)
e|---X8|---X8|---X8|---X4|---X4|
B|-----|-----|-----|-----|-----|
G|-----|-----|-----|-----|-----|
D|-3---|-5---|-8---|-----|-----|
A|-1---|-3---|-6---|-5---|-3---|
E|-----|-----|-----|-3---|-1---|
  xxxxx xxxxx xxxxx xxxxx xxxxx
I'm falling out of grace with the world
They say I've lost my midas touch what turned to gold now turns
to rust
I'm falling out of line with all the stars
That flood my dreams with their guitars and magazines




Chorus:
e|----------|-----------------|
B|----------|-----------------|
G|-7-7--7-7-|-8-8-8-8-8-8-8-8-|
D|-7-7--7-7-|-8-8-8-8-8-8-8-8-|
A|-5-5--5-5-|-6-6-6-6-6-6-6-6-|
E|----------|-----------------|

e|-----------------|-----------------|
B|-----------------|-----------------|
G|-3-3-3-3-3-3-3-3-|-----------------|
D|-3-3-3-3-3-3-3-3-|-3-3-3-3-3-3-3-3-|
A|-1-1-1-1-1-1-1-1-|-3-3-3-3-3-3-3-3-|
E|-----------------|-1-1-1-1-1-1-1-1-|
Face down this carpet tastes like coffee grounds ground into my
face now...
And every angle's covered with just another...





Pre-Verse:
e|---X8|---X8|---X8|---X4|---X4|
B|-----|-----|-----|-----|-----|
G|-3---|-5---|-8---|-----|-----|
D|-3---|-5---|-8---|-5---|-3---|
A|-1---|-3---|-6---|-5---|-3---|
E|-----|-----|-----|-3---|-1---|
NO LYRICS



Verse 1:(X2)
e|---X8|---X8|---X8|---X4|---X4|
B|-----|-----|-----|-----|-----|
G|-----|-----|-----|-----|-----|
D|-3---|-5---|-8---|-----|-----|
A|-1---|-3---|-6---|-5---|-3---|
E|-----|-----|-----|-3---|-1---|
  xxxxx xxxxx xxxxx xxxxx xxxxx
I'm falling out of style with the current way things are
The things that make conforming hard
I'm falling out of control and you just can't stop me now
I'll fight as long as time allows



Chorus:
e|----------|-----------------|
B|----------|-----------------|
G|-7-7--7-7-|-8-8-8-8-8-8-8-8-|
D|-7-7--7-7-|-8-8-8-8-8-8-8-8-|
A|-5-5--5-5-|-6-6-6-6-6-6-6-6-|
E|----------|-----------------|

e|-----------------|-----------------|
B|-----------------|-----------------|
G|-3-3-3-3-3-3-3-3-|-----------------|
D|-3-3-3-3-3-3-3-3-|-3-3-3-3-3-3-3-3-|
A|-1-1-1-1-1-1-1-1-|-3-3-3-3-3-3-3-3-|
E|-----------------|-1-1-1-1-1-1-1-1-|
Face down this carpet tastes like coffee grounds ground into my
face now
And every angle's covered with just another band-aid...



Verse 2:
e|--X16|--X16|--X16|--X16|
B|-----|-----|-----|-----|
G|-3---|-5---|-----|-----|
D|-3---|-5---|-3---|-5---|
A|-1---|-3---|-3---|-5---|
E|-----|-----|-1---|-3---|
I'm out here way beyond
A shadow of a doubt
And I know I'm never falling out
Of favor with you..



Verse 2:
e|--X16|--X16|--X16|--X16|
B|-----|-----|-----|-----|
G|-3---|-5---|-----|-----|
D|-3---|-5---|-3---|-5---|
A|-1---|-3---|-3---|-5---|
E|-----|-----|-1---|-3---|
I'm out here way beyond
A shadow of a doubt
And I know I'm never falling out
Of favor with you..




Piano Guitar Tab:
e|-10--10--10--10--11--11--11--11--9---9---8---8----|
B|---11--11--11--11--11--11--11--11--11--11--11--11-|
G|--------------------------------------------------|
D|--------------------------------------------------|
A|--------------------------------------------------|
E|--------------------------------------------------|
NO LYRICS



Verse 3:
e|---X8|---X8|---X8|
B|-----|-----|-----|
G|-----|-----|-----|
D|-6---|-5---|-3---|
A|-6---|-5---|-3---|
E|-4---|-3---|-1---|
I won't think twice or even three times. About...


Bridge:
   e|-X4|-X3|-X6|-X8|-X8|-X4|-X2|-------|-X8|-X8|-X8|
   B|---|---|---|---|---|---|---|-------|---|---|---|
   G|-3-|-2-|---|-8-|---|-3-|-2-|-------|-8-|-3-|---|
   D|-3-|-2-|-5-|-8-|-3-|-3-|-2-|-------|-8-|-3-|-3-|
   B|-1-|-0-|-5-|-6-|-3-|-1-|-0-|-55--55|-6-|-1-|-3-|
   E|---|---|-3-|---|-1-|---|---|-11--11|---|---|-1-|      
About taking a gamble with you... xx  xx
Cause with my life you have been so kind..
I take all my comfort from you..
Face down this carpet tastes like coffee grounds ground into my...




Chorus:
e|----------|-----------------|
B|----------|-----------------|
G|-7-7--7-7-|-8-8-8-8-8-8-8-8-|
D|-7-7--7-7-|-8-8-8-8-8-8-8-8-|
A|-5-5--5-5-|-6-6-6-6-6-6-6-6-|
E|----------|-----------------|

e|-----------------|-----------------|
B|-----------------|-----------------|
G|-3-3-3-3-3-3-3-3-|-----------------|
D|-3-3-3-3-3-3-3-3-|-3-3-3-3-3-3-3-3-|
A|-1-1-1-1-1-1-1-1-|-3-3-3-3-3-3-3-3-|
E|-----------------|-1-1-1-1-1-1-1-1-|
face now..
And every angle's covered with just another... band-aid.




Verse 2:
e|--X16|--X16|--X16|--X16|
B|-----|-----|-----|-----|
G|-3---|-5---|-----|-8---|
D|-3---|-5---|-5---|-8---|
A|-1---|-3---|-5---|-6---|
E|-----|-----|-3---|-----|
I'm out here way beyond
A shadow of a doubt
And I know I'm never falling out
Of favor with you


Verse 2:
e|--X16|--X16|--X16|--X16|
B|-----|-----|-----|-----|
G|-3---|-5---|-----|-8---|
D|-3---|-5---|-5---|-8---|
A|-1---|-3---|-5---|-6---|
E|-----|-----|-3---|-----|
I'm out here way beyond
A shadow of a doubt
And I know I'm never falling out
Of favor with you



Outro:
e|---X8|---X8|---X8|---X4|---X4|
B|-----|-----|-----|-----|-----|
G|-3---|-5---|-7---|-----|-----|
D|-3---|-5---|-7---|-5---|-3---|
A|-1---|-3---|-5---|-5---|-3---|
E|-----|-----|-----|-3---|-1---|

e|---X8|---X8|---X8|---X4|---X4|
B|-----|-----|-----|-----|-----|
G|-3---|-5---|-8---|-----|-----|
D|-3---|-5---|-8---|-5---|-3---|
A|-1---|-3---|-6---|-5---|-3---|
E|-----|-----|-----|-3---|-1---|
NO LYRICS

http://www.ultimate-guitar.com/tabs/r/relient_k/falling_out_ver4_tab.htm

Track 4
Forward Motion
Artist: Relient K
Album: Two lefts dont make a right...but three do
Tabbed by Mad Robotic Hippo(livo24@hotmail.com)

Ok, I couldn't find an acurate tab for this song....so I decided to do it 
myself....for the intro, palm mute the d string on guitar 1...yeah and 
play like crazy...:)

Key:

*=palm mute
x=ded note

Intro: gtr.1

e-----------------------------------------------------------------
B-----------------------------------------------------------------
G---------6---8---6---8---6-------------6---5---6---5---6---------
D-----8-8---8---8---8---8-----------6-6---6---6---6---6-----------
A-----------------------------------------------------------------
E-----------------------------------------------------------------

e-----------------------------------------------------------------
B-----------------------------------------------------------------
G---------8---10---8---10---8-------------10---13---10---11---13--
D---11-11--11---11---11---11--11----11-11---11---11---11---11----- x2
A-----------------------------------------------------------------
E-----------------------------------------------------------------

Intro: gtr.2

e------------------------------          -------------
B------------------------------          -------------
G----------------------8-------          -------------
D-------8------6-------6-------  x2 then --44444444---
A-------6------4-------6-------          --22222222--- 
E-------6------4---------------          --22222222---

Verse:

e-----------------------------------------------------------------
B-----------------------------------------------------------------
G-6-6-6-6-6-6-6-6-------------------------------------------------
D-6-6-6-6-6-6-6-6-6-6-6-6-6-6-6-6-8-8-8-8-8-8-8-8-4-4-4-4-4-4-4-4- x2
A-4-4-4-4-4-4-4-4-6-6-6-6-6-6-6-6-8-8-8-8-8-8-8-8-4-4-4-4-4-4-4-4-
E-----------------4-4-4-4-4-4-4-4-6-6-6-6-6-6-6-6-2-2-2-2-2-2-2-2-

Pre Chorus part1: gtr.1(p.m. 3rd and 4th time)

e---------------------------------------------
B---------------------------------------------
G------10---13---10---10---10---13---10---10-- 
D---11---11---11---11---11---11---11---11----- x4
A---------------------------------------------
E---------------------------------------------

Pre Chorus part1: gtr.2(p.m. 2nd time)

e---------------------------------------------
B---------------------------------------------
G--66666666-----------------------------------
D--66666666-66666666-88888888-4444444--------- x2
A--44444444-66666666-88888888-4444444---------
E-----------44444444-66666666-2222222---------

Pre Chorus part2:

e-------------------------------------------------------------------------
B-------------------------------------------------------------------------
G--------------------8888888888888888-------------------88888888----------
D--88888888-66666666-8888888888888888-88888888-66666666-88888888-44444444-
A--66666666-66666666-6666666666666666-88888888-66666666-66666666-44444444-
E--66666666-44444444------------------66666666-44444444----------22222222-
                                                                 ********
Pre Chorus part3:

e---------------------------------------------
B---------------------------------------------
G--66666666-66666666--------------------------
D--66666666-66666666-4444444444444444--------- x2
A--44444444-33333333-4444444444444444---------
E--------------------2222222222222222---------

Chorus: gtr.1

e-------------------------------------         ---------------------------
B-------6-------6---------6-------7---         ---------------------------
G-----6-------6---------6-------6-----         -1111-1010-1111-1010-11-13-
D-----------------------------4------- x4 then --x-x--x-x--x-x--x-x--x--x-
A---4---------------------------------         --9-9--8-8--9-9--8-8--9-11-
E-----------4---------6---------------         ---------------------------

Chorus: gtr.2

e---------------------------------------------------------------------------
B---------------------------------------------------------------------------
B---------------------------------------------------------------------------
G-66666666-----------------------------66666666-----------------------------
D-66666666-66666666-88888888-44444444--66666666-66666666-88888888-44444444--
A-44444444-66666666-88888888-44444444--44444444-66666666-88888888-44444444--
E----------44444444-66666666-22222222-----------44444444-66666666-22222222--
  ******** ******** ******** ********  ******** ******** ******** 


Well that's basically all.....I hope its helped some people out there and 
yeah. It's my first tab so I hope it's not too bad....anyway, just 
listen to the song to get the timing and where the different guitar parts 
come in....yeah. And if you have any coments/questions feel free to email me.
And have fun.
God BLess :) 

http://www.christianguitar.org/csong13200/Relient-K-Forward-Motion

Track 5
-----------------------------------------------------------------------------
In Love With the 80's (Pink Tux to the Prom)- Relient K
-----------------------------------------------------------------------------
Tabbed by: ninja-explosion
Email:
This is the guitar tab plus I put the keyboard part in ()'s, except for the intro and interlude.

Tuning: standard

Intro: on keyboard
A F A G E G G D G Bb A G       (played twice)
chords on keyboard: F C G Bb

chords played 8 times each  play once
e|-------------------------------------------------------------------------|
B|-------------------------------------------------------------------------|
G|-10----------------------------------------------------------------------|
D|-10--10--5--8------------------------------------------------------------|
A|--8--10--5--8------------------------------------------------------------|
E|------8--3--6------------------------------------------------------------|
  xxxxxxxxxxxxx (palm muted)

verse (keyboard keeps playing chords) play twice
e|-------------------------------------------------------------------------|
B|-------------------------------------------------------------------------|
G|-10----------------------------------------------------------------------|
D|-10--10--5--8------------------------------------------------------------|
A|--8--10--5--8------------------------------------------------------------|
E|------8--3--6------------------------------------------------------------|
  xxxxxxxxxxxxx

chorus (keyboard drops out) play 4 times
e|-------------------------------------------------------------------------|
B|-------------------------------------------------------------------------|
G|-10----------------------------------------------------------------------|
D|-10--1010--5-5--8-8------------------------------------------------------|
A|--8--1010--5-5--8-8------------------------------------------------------|
E|------8-8--3-3--6-6------------------------------------------------------|

verse 2  (keyboard plays intro) play twice
e|-------------------------------------------------------------------------|
B|-------------------------------------------------------------------------|
G|-10----------------------------------------------------------------------|
D|-10--10--5--8------------------------------------------------------------|
A|--8--10--5--8------------------------------------------------------------|
E|------8--3--6------------------------------------------------------------|
  xxxxxxxxxxxxx

chorus w/ alternate ending (keyboard drops out)
e|-------------------------------------------------------------------------|
B|-------------------------------------------------------------------------|
G|-10--------------------X3--10--------------------------------------------|
D|-10--1010--5-5--8-8--------10--1010--5-5-5-5-5-5-5-5--8-8-8-8------------|
A|--8--1010--5-5--8-8---------8--1010--5-5-5-5-5-5-5-5--8-8-8-8--10101010--|
E|------8-8--3-3--6-6-------------8-8--3-3-3-3-3-3-3-3--6-6-6-6--8-8-8-8---|
                                       pink tux to...     pink tux to the...

bridge 1 (keyboard plays chords) play chords 8 times
e|-------------------------------------------------------------------------|
B|-------------------------------------------------------------------------|
G|-10----------------------------------------------------------------------|
D|-10--10--5--8------------------------------------------------------------|
A|--8--10--5--8------------------------------------------------------------|
E|------8--3--6------------------------------------------------------------|
  xxxxxxxxxxxxx
  doo doo... doo doo doo...

bridge 2 guitar 1 (keyboard drops out) play 2 times
e|-------------------------------------------------------------------------|
B|-------------------------------------------------------------------------|
G|-10-10-10-10-------------------------------------------------------------|
D|-10-10-10-10------10-----5-----8-----------------------------------------|
A|--8--8--8--8------10-x8--5-x8--8-x8--------------------------------------|
E|-------------------8-----3-----6-----------------------------------------|
   I am gonna wear...

bridge 2 guitar 2    same as ending solo
e|----1-0-------------------------1-0---3-3-3/5\1-1~--3-3-3/5\1-1~---------|
B|---1------1-1-1/3/1------------1-----------------------------------------|
G|--------------------0-2~-0----2------------------------------------------|
D|--2----------------3---------3-------------------------------------------|
A|-3-----------------------------------------------------------------------|
E|-------------------------------------------------------------------------|

verse 3
e|-------------------------------------------------------------------------|
B|-------------------------------------------------------------------------|
G|-10-------------10-------------------------------------------------------|
D|-10--10--5--8---10--10-----5------------------8--------------------------|
A|--8--10--5--8----8--10-----5------------------8--------------------------|
E|------8--3--6--------8-----3------------------6--------------------------|
  xxxxxxxxxxxxxxxxxxxxxx    to throw it away...   to fall in love with...

interlude
keyboard:  C C Bb F   C C Bb F   C C Bb F   C C Bb F
play with chords F C G Bb under it

play each chord 8 times except for the last 2, play once
e|-------------------------------------------------------------------------|
B|-------------------------------------------------------------------------|
G|-10------------10--------------------------------------------------------|
D|-10--10--5--8--10--10----5----8------------------------------------------|
A|--8--10--5--8---8--10----5----8------------------------------------------|
E|------8--3--6-------8----3----6------------------------------------------|
  xxxxxxxxxxxxxxxxxxxxx

...the 80's...

bridge 2   2 times (total of 8 w/ repeats)
(on the 8th time play G5 and Bb5 once w/out p.m. )

outro
keyboard plays intro riff 6 times w/ chords F C G Bb

chords played 8 times each  play twice
e|-------------------------------------------------------------------------|
B|-------------------------------------------------------------------------|
G|-10----------------------------------------------------------------------|
D|-10--10--5--8------------------------------------------------------------|
A|--8--10--5--8------------------------------------------------------------|
E|------8--3--6------------------------------------------------------------|
  xxxxxxxxxxxxxx

guitar 2 ends with this solo
e|----1-0-------------------------1-0---3-3-3/5\1-1~--3-3-3/5\1-1~---------|
B|---1------1-1-1/3/1------------1-----------------------------------------|
G|--------------------0-2~-0----2------------------------------------------|
D|--2----------------3---------3-------------------------------------------|
A|-3-----------------------------------------------------------------------|
E|-------------------------------------------------------------------------|


order

intro
verse 1
chorus
verse 2
chorus (w/ alternate ending)
bridge 1
bridge 2
verse 3
interlude
bridge 2 x2
outro


| /  slide up
| \  slide down
| h  hammer-on
| p  pull-off
| ~  vibrato
| +  harmonic
| x  palm mute note
===============================================================================

Track 6
Song: College Kids
Artist: Relient K
Album: Two Lefts Don't Make a Right...But Three Do
Tabbed by: Sam Blake

 ---------------------
|Legend:              |
| x = palm mute       |
| ~ = let ring        |
| h = hammer-down     |
| p = pull-off        |
| / = slide up        |
| \ = slide down      |
| < = increase volume |
| ! = cut-off         |
 ---------------------


Intro Rhythm:
Part One - play 1x
e|--------------------------------------------------------------|
B|--------------------------------------------------------------|
G|-5~~~~--------------------------------------------------------|
D|-5~~~~---7xxxxxxxxxxxxxxx--3xxxxxxxxxxxxxxx--5xxxxxxxxxxxxxxx-|
A|-3~~~~---7xxxxxxxxxxxxxxx--3xxxxxxxxxxxxxxx--5xxxxxxxxxxxxxxx-|
E|---------5xxxxxxxxxxxxxxx--1xxxxxxxxxxxxxxx--3xxxxxxxxxxxxxxx-|
Part Two - play 2x
e|------------------------------------------------------------|
B|------------------------------------------------------------|
G|-5xxxxxxxxxxxxxxx-------------------------------------------|
D|-5xxxxxxxxxxxxxxx--7xxxxxxxxxxxxxxx--3xxxxxxxxxxxxxxx--5~~~-|
A|-3xxxxxxxxxxxxxxx--7xxxxxxxxxxxxxxx--3xxxxxxxxxxxxxxx--5~~~-|
E|-------------------5xxxxxxxxxxxxxxx--1xxxxxxxxxxxxxxx--3~~~-|

Intro Lead: play 1x - start when rhythm gets to Part Two
e|---------------------------|
B|----------------------8~~~-|
G|----------------------4~~~-|
D|---2~~----2~~----2~~--5~~~-|
A|-3~-----0~-----------------|
E|---------------1~----------|


Pre-verse Riff Rhythm: play 2x
e|---------------|
B|---------------|
G|-5-------------|
D|-5---7---3---5-|
A|-3---7---3---5-|
E|-----5---1---3-|

Pre-verse Riff Lead: play 2x
e|----------------------------------------------------|
B|-----------8------------8------------8--------------|
G|-9h10p9-------9h10p9-------9h10p9----------9h10-7h9-|
D|--------10-----------10-----------10----------------|
A|----------------------------------------------------|
E|----------------------------------------------------|


Verse Rhythm:
Part One - play 1x
e|-----------------------------------------------------------------------|
B|-----------------------------------------------------------------------|
G|-5xxxxxxxxxxxxxxx-------------------5xxxxxxxxxxxxxxx-------------------|
D|-5xxxxxxxxxxxxxxx-7xxxxxxx-3xxxxxxx-5xxxxxxxxxxxxxxx-7xxxxxxx-3xxxxxxx-|
A|-3xxxxxxxxxxxxxxx-7xxxxxxx-3xxxxxxx-3xxxxxxxxxxxxxxx-7xxxxxxx-3xxxxxxx-|
E|------------------5xxxxxxx-1xxxxxxx------------------5xxxxxxx-1xxxxxxx-|
Part Two - play 1x
e|-------------------------------------------------------------------------|
B|-------------------------------------------------------------------------|
G|-5xxxxxxxxxxxxxxx-------------------5xxxxxxxxxxxxxxx---------------------|
D|-5xxxxxxxxxxxxxxx-7xxxxxxx-3xxxxxxx-5xxxxxxxxxxxxxxx-7xxxxxxx-3-\-2-/-3~~|
A|-3xxxxxxxxxxxxxxx-7xxxxxxx-3xxxxxxx-3xxxxxxxxxxxxxxx-7xxxxxxx-3-\-3-/-3~~|
E|------------------5xxxxxxx-1xxxxxxx------------------5xxxxxxx-1-\-0-/-1~~|

Verse Lead: play 1x - play during Rhythm Part Two
e|----------------------------------------------|
B|----------------------------------------------|
G|----------------------------------------------|
D|---2~~----2~----2~~----2~~----2~--3-\-2-/-3~~-|
A|-3~-----0~-----------3~-----0-----3-\-3-/-3~~-|
E|--------------1~------------------1-\-0-/-1~~-|


Chorus Rhythm + Lead: play 2x - first time, palm mute the G5 chords
e|-----------------|
B|-----------------|
G|-5---------------|
D|-5---3--55555555-|
A|-3---3--55555555-|
E|-----1--33333333-|


PRE-VERSE


VERSE


CHORUS


Interlude Rhythm:
Part One - play 1x
e|------|
B|------|
G|-5~~~-|
D|-5~~~-|
A|-3~~~-|
E|------|
Part Two - play 6x - ring out last chord
e|-----------------|
B|-----------------|
G|-55--55----------|
D|-55--55--55--7-5-|
A|-33--33--55--7-5-|
E|---------33--5-3-|

Interlude Lead: play 7x - end on G(5)
e|-----------------|
B|-55----665-------|
G|-------------7-4-|
D|---5577---555----|
A|-----------------|
E|-----------------|


Bridge Rhythm: all palm muted
Part One - play 4x 
e|------------------|
B|------------------|
G|-5555555544444444-|
D|-5555555555555555-|
A|-3333333322222222-|
E|------------------|
Part Two - play 1x
e|-------------|
B|-------------|
G|-555555554~~-|
D|-555555555~~-|
A|-333333332~~-|
E|-------------|

Bridge Lead: play 1x - play during 2nd time of Rhythm Part One
e|-----------------|
B|-55----665-------|
G|-------------7-4-|
D|---5577---555----|
A|-----------------|
E|-----------------|


Pre-verse Riff Rhythm:
Part One - play 1x - come in at the *s in the Lead part
e|-------|
B|-------|
G|-------|
D|-3---5-|
A|-3---5-|
E|-1---3-|
Part Two - play 3x
e|---------------|
B|---------------|
G|-5-------------|
D|-5---7---3---5-|
A|-3---7---3---5-|
E|-----5---1---3-|

Pre-verse Riff Lead: play 4x
e|--------------------------*--------------------------|
B|-----------8------------8-*-----------8--------------|
G|-9h10p9-------9h10p9------*-9h10p9----------9h10-7h9-|
D|--------10-----------10---*--------10----------------|
A|--------------------------*--------------------------|
E|--------------------------*--------------------------|


CHORUS


Outro Rhythm + Lead: play 4x - end with this
e|---------------|             |-------|
B|---------------|             |-------|
G|-5-------------|             |-5~~---|

http://www.ultimate-guitar.com/tabs/r/relient_k/college_kids_tab.htm?1349044183

Track 7
----------------------------------------------------------------------------
			    Trademark-Relient K
----------------------------------------------------------------------------
Tabbed by:i_eat_goldfish
Email:Mx_blink_Px1801@yahoo.com

Tuning: Dropped D (DADGBe)
 This a new song by a sweet band from a new EP called "Employee of the Month"
ITS THE COOLEST!  you can only get this album at a show so if you dont have
one you can download all the songs on Kazaa.  this isnt 100% correct but its
really close.  listen to  the song for the timing.  There is 2 Guitars but i
am only doing one.

Intro.   (x4)
e|-------------------------------------------------------------------------|
B|-------2-2h4-4-4----2-2h4-4-4--------------2-2p1-1---2-2h4-1-------------|
G|-------------------------------------------------------------------------|
D|-------------------------------------------------------------------------|
A|--3-44------------------------0---------0--------------------------------|
D|--3-44-----------44-----------0---------0--------------------------------|
       (x2)
e|-------------------------------------------------------------------------|
B|-----------------------5-------------------------------------------------|
G|-------6----------------------7-------6-------4-------2-------2----------|
D|-x7-x7---x7-x7-7-x7-x7--x7-x7---x7-x7---x2-x2---x2-x2---x0-x0---x0-x0-4--|
A|-------------------------------------------------------------------------|
D|-------------------------------------------------------------------------|

Verse 1  (x2)
e|-------------------------------------------------------------------------|
B|-------------------------------------------------------------------------|
G|-----------------9xxxxxx--(x14)-11xxxxx--(x14)-7xxxxxx--(x14)------------|
D|-----------------7xxxxxx--------9xxxxxx--------5xxxxxx-------------------|
A|--5xxxxxx--(x14)---------------------------------------------------------|
D|--5xxxxxx----------------------------------------------------------------|
   p.m..........

Interlude
e|--------------------------------------|
B|--------------------------------------|
G|--------------------------------------|
D|--------------------------------------|  x2
A|--44-444-4/77777777-00000000-22222222-|
D|--44-444-4/77777777-00000000-22222222-|

e|----------------------------------|
B|----------------------------------|
G|----------------------------------|
D|------------------9xxxxxxxx-------|
A|---7-(let ring)---7xxxxxxxx-------|
D|---7------------------------------|

Chorus  (x1)
e|-------------------------------------------------------------------------|
B|-------------------------------------------------------------------------|
G|-------------------------------------------------------------------------|
D|-------------------------------------------------------------------------|
A|--77-7777-77-7777-00-0000-00-0000-77-7777-77-7777-00-0000-00-0000--------|
D|--77-7777-77-7777-00-0000-00-0000-77-7777-77-7777-00-0000-00-0000--------|


e|-------------------------------------------------------------------------|
B|-------------------------------------------------------------------------|
G|-------------------------------------------------------------------------|
D|------7-----7----7-----7-----7----7-----7-----7----7-----7-----7---------|
A|--9xx---9xx---9x---8xx---8xx---8x---7xx---7xx---7x---6xx---6xx---6x------|
D|-------------------------------------------------------------------------|

Prelude
e|-------------------------------------------------------------------------|
B|-------------------------------------------------------------------------|
G|-------------------------------------------------------------------------|
D|--77-----777-------------------------------------------------------------|
A|--55-000-555-000-3-------------------------------------------------------|
D|-----000-----000-3-------------------------------------------------------|

e|-------------------------------------------------------------------------|
B|-------2-2h4-4-4----2-2h4-4-4--------------2-2p1-1---2-2h4-1-(x1)--------|
G|------------------------------------------------------------------11-----|
D|------------------------------------------------------------------11(x16)|
A|--3-44------------------------0---------0-------------------------9------|
D|--3-44-----------44-----------0---------0--------------------------------|

e|-------------------------------------------------------------------------|
B|-------2-2h4-4-4----2-2h4-4-4--------------2-2p1-1---2-2h4-1---(x1)------|
G|-------------------------------------------------------------------------|
D|-------------------------------------------------------------------------|
A|--3-44------------------------0---------0--------------------------------|
D|--3-44-----------44-----------0---------0--------------------------------|

       (x2)
e|-------------------------------------------------------------------------|
B|------------------------5------------------------------------------------|
G|--------6----------------------7-------6-------4-------2-------2---------|
D|--x7-x7---x7-x7-7-x7-x7--x7-x7---x7-x7---x2-x2---x2-x2---x0-x0---x0-x0-4-|
A|-------------------------------------------------------------------------|
D|-------------------------------------------------------------------------|

Verse 2  (x2)
e|-------------------------------------------------------------------------|
B|-------------------------------------------------------------------------|
G|-----------------9xxxxxx--(x14)-11xxxxx--(x14)-7xxxxxx--(x14)------------|
D|-----------------7xxxxxx--------9xxxxxx--------5xxxxxx-------------------|
A|--5xxxxxx--(x14)---------------------------------------------------------|
D|--5xxxxxx----------------------------------------------------------------|
   p.m..........

Repeat interlude
Repeat chorus

SOLO  (play this fast)   (x4)
e|-------------------------------------------------------------------------|
B|-------------------------------------------------------------------------|
G|--6/7-7-6-4---4-6-4---6-4---4-2------------------------------------------|
D|------------7-------4-----2----------------------------------------------|
A|-------------------------------------------------------------------------|
D|-------------------------------------------------------------------------|

Outro

e|-------------------------------------------------------------------------|
B|-------------------------------------------------------------------------|
G|-------------------------------------------------------------------------|
D|-------------------------------------------------------------------------|
A|--77-7777-77-7777-00-0000-00-0000-77-7777-77-7777-00-0000-00-0000--------|
D|--77-7777-77-7777-00-0000-00-0000-77-7777-77-7777-00-0000-00-0000--------|
  
e|-------------------------------------------------|-----------------------|
B|-------------------------------------------------|-----------------------|
G|-------------------------------------------------|-----------------------|
D|-------------------------------------------------|-7-7-7-7-7-7-7-7-------|
A|--77-7777-77-7777-00-0000-00-0000-77-7777-77-7777|-5-5-5-5-5-5-5-5-------|
D|--77-7777-77-7777-00-0000-00-0000-77-7777-77-7777|-----------------------|

e|-------------------------------------------------------------------------|
B|-------------------------------------------------------------------------|
G|-------------------------------------------------------------------------|
D|--11-11-11-11-10-10-10-10-9-9-9-9-8-8-8-8-77-----777---------------------|
A|--9--9--9--9--8--8--8--8--7-7-7-7-6-6-6-6-55-000-555-000-----------------|
D|---------------------------------------------000-----000-----------------|
Repeat solo

End On

e|-------------|
B|-------------|
G|-------------|
D|----7--------|
A|----7--------|
D|----7--------|


Order:
Intro
Verse 1
Interlude
Chorus
Prelude
Verse 2
Interlude
Chorus
SOLO
Outro
Solo
End

| /  slide up
| \  slide down
| h  hammer-on
| p  pull-off
| ~  vibrato
| +  harmonic
| x  Mute note
===============================================================================

http://www.ultimate-guitar.com/tabs/r/relient_k/trademark_tab.htm

Track 8
Song: Hoopes I Did It Again
Artist: Relient K
CD: Two Lefts Dont Make a Right, But Three do...
Written by: Matthew Thiessen
Copyright: 2003 Gotee Music
Tabbed by: Extreme_je5u5freak@yahoo.com


Intro: 
       A
e  -----------------------------------------------------------------------
b  ----------------------------------------10----9-----8-----9------------
g  -----7-----------------------------------------------------------------
d  -----7-------hold for awhile------------7-----6-----4-----6------------
a  -----5-----------------------------------------------------------------
E  -----------------------------------------------------------------------
 
     
Verse: Mostly bass but there is a quiet clean guitar in the background
doing this repeatedly i believe...

e  --------------------------------------------
b  ---------------10----9----------------------
g  ------------9--------------9----------------
d  --------7-----------------------------------
a  --------------------------------------------
E  --------------------------------------------


Part2Verse:
      D        D          E         A        G           A
             / P.m......................................\
e  ----------|------------------------------------------|-----------
b  -----------------------------------------------------------------
g  ----7-------7----------9-----------------------------------------
d  ----7-------7-x6-------9--x8-----7--------5-5-5-5-----7--7-------
a  ----5-------5----------7---------7--x8----5-5-5-5-----7--7-------
E  ---------------------------------5--------3-3-3-3-----5--5-------


Part2Verse:
       D      D                  E        A        G        D       E
             / P.m......................................\
e  ----------|------------------------------------------|-------------------
b  -------------------------------------------------------------------------
g  ----7------7-7-7-7-7-7--------9--------------------------7-------9-------
d  ----7------7-7-7-7-7-7--------9--x8----7--------5--------7-x8----9--x8---
a  ----5------5-5-5-5-5-5--------7--------7--x8----5-x8-----5-------7-------
E  ---------------------------------------5--------3------------------------


PreChourus:  The hardest part to figure out. 
     
this is, sort of, an off sounding
chord but I tried to match
it as close as i could. Try either one     Play this fast...n...play it twice
e  -------------------------------------------------------------------------
b  ----2-------2------------------------------------------------------------
g  ----2--or---2------------------------------------------------------------
d  ----2-------x------play offbeat 4 times----------------------------------
a  ------------4--------------------------------0---5\4---2---h4--p2---0--0-
E  -------------------------------------------------------------------------


Chorus: Play 8 times each
        A       E       D      E       A       E       D       E  E         
e --------------------------------------------------------------------------
b --------------------------------------------------------------------------
g --------------9------7-------9---------------9-------7-------9------------
d-------7-------9------7-------9-------7-------9-------7-------9------------
a ------7-------7------5-------7-------7-------7-------5-------7------------
E ------5------------------------------5------------------------------------


Go immediately to intro and play everything again.
**********************************************************


Then there is a bass solo


Outro: 
hold 1st 2 chords for 8 beats, rest 8, then play\
      A         F#                                E	         G
e  -----------------------------------------------------------------------
b  -----------------------------------------------------------------------
g  -----------------------------------------------9---9---9---------------
d  ----7--------4---------------------------------9---9---9------5-5-5----
a  ----7--------4---------------------------------7---7---7------5-5-5----
E  ----5--------2------------------------------------------------3-3-3----

Outro: 
      A         F#            D          E         G
e  -----------------------------------------------------------
b ------------------------------------------------------------
g  --------------------------7-----------9--------------------
d ----7----------4-----------7--x8-------9--x5-----5----------  Play twice
a ----7--x8------4--x8-------5-----------7---------5--x3------
E ----5----------2---------------------------------3----------

end with Chord "A"

   If you have any suggestions of how i could fix the tab please tell me.
I am pretty confident that the whole song is accurate but that one chord
is a hard one! Tell me if you have some other chord suggestions. Thanks!

HaVe FuN,
God bless,
Mike
http://www.christianguitar.org/csong11096/Relient-K-Hoopes-I-Did-It-Again

Track 9
Song: Over Thinking
Artist: Relient K
Album: Two Lefts...
Written by: Matt Thiessen
Copyright 2003 Gotee Records
Tabbed by Josiah Pagoota  ---  guitarvibe55@yahoo.com

Alrighty ya'll this was quite a tough song for me to get. It should be
accurate for the most part so have fun with it. This is a rockin song too!

Intro: I'm 90% sure this is perfect

e--------10----10----10---------10----10----10----
B--------10----10----10---------10----10----10----
G--9-/11----11----11----9-9-/11----11----11----9--
D--11/12----12----12----1111/12----12----12----11-    PLAY TWICE
A-------------------------------------------------
E-------------------------------------------------


Verses:  listen to the song and you'll know exactly when to change chords 

D5         D5/C#         B5         G5     (PLAY IT ALL TWICE)


Chorus: Guitar 1

D5        A5         B5         G5   (PLAY TWICE)

Chorus: Guitar 2 - melody for all 8 lines in the chorus

e----------------
B----------------
G--12-11-6-6-7---
D--x--x--x-x-x---   Play it 4 times thru 1st chorus, 8 times thru other choruses
A--10-9--4-4-5---
E----------------

Post-Chorus: Guitar 1 - play B5 and G5 four times staccato each

B5     G5     D5     D5
B5     G5     D5     D5

Post-Chorus: Guitar 2 - melody for the 2nd and 4th lines (during the D5's)

e-------------------
B-------------------
G--11-12--11-9-7-6--
D--x--x---x--x-x-x--
A--9--10--9--7-5-4--
E-------------------

POST-Post-Chorus (the soft part): i hear no distinct guitar parts so why tab it?

Ok so then play:
Intro
Verse
Chorus
Post-Chorus

Bridge Riff: this is sweet (and it's tabbed perfectly)

e----------------------------------
B----------------------------------
G----------4h6h7-0-----------------
D--0-0-7-0---------4-4-5-0-2h4-2p0-
A----------------------------------
E----------------------------------

Bridge: 1st part - play palm-muted with riff behind it

D5    F#5   G5    A5    (PLAY 4X) then:    Bb5     C5

Bridge: 2nd part - this is where it drops to just a palm-muted guitar and
a semi-muffled voice (and its so cool 'cause the key goes from D to F)

e------------------------------------------------------------------
B------------------------------------------------------------------
G------------------------------------------------------------------
D--10101010101010107-7-7-7-5-5-5-5-3-3-3-3-3-3-3-3-5-5-5-5-5-5-5-5-
A--8-8-8-8-7-7-7-7-5-5-5-5-3-3-3-3-1-1-1-1-1-1-1-1-3-3-3-3-3-3-3-3-
E------------------------------------------------------------------
   F5*     F5*/E   D5      C5      Bb5             C5

Then: play open (not muted)

F5*     F5*/E     D5     C5     Bb5          C5          D5

Then right before you go back into the chorus:

D--7-5-
A--7-5-
E--5-3-

Then play Chorus, Intro, and last verse


Chords: in order of appearance

Strings->E  A  D  G  B  e
=D5      x  5  7  7  x  x=
=D5/C#   x  4  7  7  x  x=
=B5      x  2  4  4  x  x=
=G5      3  5  5  x  x  x=
=A5      5  7  7  x  x  x=
=F#5     2  4  4  x  x  x=
=Bb5     x  1  3  3  x  x=
=C5      x  3  5  5  x  x=
=F5*     x  8  10 10 x  x=
=F5*/E   x  7  10 10 x  x=


Ok that's it. I hope this tab makes sense to everyone and that by listening to
the song you'll be able to understand where and how to play what. If you're
having trouble with it or you have a comment on it please e-mail me at
guitarvibe55@yahoo.com thanks a lot.    ~ Josiah

http://www.christianguitar.org/csong10889/Relient-K-Over-Thinking

Track 10
Song: I Am Understood?
Artist: Relient K
Album: Two Lefts etc.
Track: 10
Written by: Matt Thiessen
Copyright 2003 Gotee Records
Tabbed by: Josiah - guitarvibe55@yahoo.com

Ok this is like the coolest song ever. It rocks my face off especially
the screaming outro. Well this is an accurate tab but if you have any
questions or comments email me at guitarvibe55@yahoo.com alright? thanks

First verse (acoustic part):

Bm    Bm/G     D    A   (4X)

First verse (electric part) and all other verses: just use some basic
strum pattern
e--------------------
B--------------------
G--4---------7-------
D--4----5----7----7--
A--2----5----5----7--
E-------3---------5--
   B5   G5   D5   A5

At the end of the verse hold out the A5 for another measure

Chorus: the song changes from 4/4 to 6/8 time here so its a tricky
transition so i put how to count it off above the tab to match the
strum pattern
                             
   123456123456123456123456123456123456123456123456
e---------------------------------------------------
B---------------------------------------------------
G--7-77777-7777------------4-44444-4444-------------
D--7-77777-77775-55555-55554-44444-44444-44447-7777-
A--5-55555-55555-55555-55552-22222-22224-44447-7777-
E--------------3-33333-3333------------2-22225-5555-
   D5          G5          B5          F#5   A5

After the chorus play this:
e-------------------
B-------------------
G--7777xxxx7777xxxx-
D--xxxxxxxxxxxxxxxx-
A--5555xxxx5555xxxx-
E-------------------   then go into the next verse


At the end of the 2nd verse when you're holding out the A5, guitar 2 plays:
e-----------------
B-----------------
G--14-\\6--7--9---
D--x--\\x--x--x---
A--12-\\4--5--7---
E-----------------

Play chorus again

Bridge: this is played with a mild distortion/delay effect
e-------------------------------------------
B-------------------------------------------
G------0----0----0----0----0----0-----------
D---0h4--0h4--0h4--0h4--0h4--0h4---0h4-5p4--
A-----------------------------------------5-
E--2--------------0----2----------2---------   play three times

After that play this: (x means palm mute that note)
e-------------------------------------------------------------------
B-------------------------------------------------------------------
G----0--0-0--0--0-0--0--0-0--0--0-0--0--0-0--0--0-0--0--0-0---------
D-----------------------------------------------------------7-7-7-7-
A--22-22-2---------55-55-5-00-00-0-22-22-2---------55-55-5--7-7-7-7-
E----------33-33-3-------------------------33-33-3----------5-5-5-5-
   xx xx x xx xx x xx xx x xx xx x xx xx x xx xx x xx xx x 

Play 3rd verse

Here's one part in the 3rd verse that drops to clean delay guitar:
e-------------------------------
B-------------------------------
G----0-------0-------0-------0--
D---4-------4-------4-------4---
A--5-------5-------5-------5----
E-------------------------------

Finish the 3rd verse, play the chorus

After the last chorus play this: (careful-this is one tricky tab to read!)

e--xxxxxxxxxxxxxxxxxxxxxxxxxxxxxxxx-
B--3333xxxx3333xxxx3333xxxx3333xxxx-
G--2222xxxxxxxxxxxxxxxxxxxxxxxxxxxx-
D--0000xxxx0000xxxx0000xxxx0000xxxx-
A--xxxxxxxx0000xxxx1111xxxxxxxxxxxx-
E--xxxxxxxxxxxxxxxxxxxxxxxx3333xxxx-  play it 2 1/2 times
   D       D/A     D/Bb    G

Outro: (the noise has broken my defense...)

Bb5    G5    D5    A5   (play a lot of times)

When he starts repeating "let me embrace salvation" hold the D5 for a while

End:
e-----------------
B------------7----
G--3----5----7----
D--3----5----7----
A--1----3----5----
E-----------------
   Bb5  C5   D

Chords used:

Bm       x2443x
Bm/G     3x443x
D        x5777x
A        5776xx
Bb5      x133xx
G5       355xxx
D5       x577xx
A5       577xxx


Alright i think thats everything if you want to know anything email me
at guitarvibe55@yahoo.com. thanks       ~ Josiah

http://www.christianguitar.org/csong10756/Relient-K-I-Am-Understood?

Track 11
Getting Into You

Intro:
E----------------------------
B----0-----0-----0-----------
G-----1-----1-----1----------
D---2-----2-----2------------
A-------------0--------------
E-0-----2-----------2--------


Verse:
E----------------------------
B----0-----0-----0----2------
G-----1-----1-----1----2-1---
D---2-----2-----2------------
A-------------0--------------
E-0-----2-----------2--------


Chorus:
E	B	F#sus		A2

E	B	F#sus		A2

	
Bridge:

Guitar 1
E---------------------------------------------------------------------------
B---------------------------------------------------------------------------
G---9----8----6----1----9----8----6----1----9----8----6---1-----------------
D----9----9----6----2----9----9----7----2----9----9----7--2-----------------
A--7----9----7----2----7----9----7----2----7----9----7----2-----------------
E-9----7----5----0----9----7----5----0----9----7----5-----0-----------------

Guitar 2
E----------------12------------------12-------------12----------------------
B-9----10---12---12---9----10---12---12---9----12---12----------------------
G-9----11---13--------9----11---13--------9----13---------------------------
D---------------------------------------------------------------------------
A---------------------------------------------------------------------------
E---------------------------------------------------------------------------


Ending:
E---------------------------0--
B----0-----0-----0----2-----0--
G-----1-----1-----1----2-1--1--
D---2-----2-----2-----------2--
A-------------0-------------2--
E-0-----2-----------2-------0—


Chords:
    E       B     F#sus    A2
E---0-------0-------0-------0--------
B---0-------4-------0-------0--------
G---1-------4-------2-------2--------
D---2-------4-------4-------2--------
A---2-------2-------4-------0--------
E---0-------0-------0-------0--------

God Bless,
     Daniel D

http://www.ultimate-guitar.com/tabs/r/relient_k/getting_into_you_tab.htm

Track 12:
Song: [Untitled Track]
Artist: Relient K
Tuning: ?
Description: Matt Thiessen talks with a kid.
I can't figure this one out. It's really difficult...if one of you guys could
figure it out could you kindly email it to me? Thanks. I just can't figure out 
if the kid is talking in E major because it's really hard to transfer human
conversation into music. You have to listen to the track very carefully before
you can tab it.

http://www.thiswasoneofmystupidjokesifyoudidntrealizeit.com

Track 13
Song: Gibberish
Artist: Relient K
Album: Two Lefts Don't Make a Right...but Three Do
Tabbed by: BadBob737

 -------------------
|Legend:            |
| / = slide up      |
| x = mute          |
| ~ = let ring      |
| \ = slide down    |
 -------------------


Intro Rhythm: play 1x
e|--------------------------------------------------------------|
B|--------------------------------------------------------------|
G|-6-77--77/99--44/55--5555555555555555555555555555555555555555-|
D|-7-77--77/99--55/55--5555555555555555555555555555555555555555-|
A|-4-55--55/77--22/33--3333333333333333333333333333333333333333-|
E|--------------------------------------------------------------|

Intro Lead: play 1x
e|---------------------------------------------------------------|
B|---------------------------------------------8~888888888888888-|
G|-6-77--77/99--22/33-7777777/9~99999999999999/x~xxxxxxxxxxxxxxx-|
D|-x-xx--xx/xx--xx/xx-xxxxxxx/x~xxxxxxxxxxxxxx/5~555555555555555-|
A|-4-55--55/77--00/11-5555555/7~77777777777777/------------------|
E|---------------------------------------------------------------|


Verse One Rhythm: 
Part One: play 3x - chords with x's are palm muted
e|------------------|
B|------------------|
G|-555~----555~-----|
D|-555~333~555~555~-|
A|-333~333~333~555~-|
E|-----111~----333~-|
   xx  xx  xx  xx
Part Two: play 1x - chords with x's are palm muted
e|------------------------------------------|
B|------------------------------------------|
G|-555--------------------------------------|
D|-555~333~77777777555555553333333355555555-|
A|-333~333~77777777555555553333333355555555-|
E|-----111~55555555333333331111111133333333-|
   xx  xx  xxxxxxxxxxxxxxxxxxxxxxxxxxxxxxxx
Part Three: play 1x
e|------------------|
B|------------------|
G|-555~----555~-----|
D|-555~333~555~555~-|
A|-333~333~333~555~-|
E|-----111~----333~-|
   xx  xx  xx  xx
Part Four:
e|-----------------|
B|-----------------|
G|-555~----555-5~~-|
D|-555~333~555-5~~-|
A|-333~333~333-3~~-|
E|-----111~--------|
   xx  xx  xx 

Verse One Lead: play 1x - come in at Rhythm Part Three
e|-------------------------|
B|-------------------------|
G|-5--5--5--5--5--5--5-5~~-|
D|-x--x--x--x--x--x--x-x~~-|
A|-3--3--3--3--3--3--3-3~~-|
E|-------------------------|


Chorus Rhythm: play 4x - end with C5 (ring out)
e|------------------|
B|------------------|
G|-5555-------------|
D|-5555555533335555-|
A|-3333555533335555-|
E|-----333311113333-|

Chorus Lead: play 4x - end on A(7)
e|--------------------|
B|--------------------|
G|--------------------|
D|--------------------|
A|-77\5555/8888\55555-|
E|--------------------|


Bridge (Rhythm Only): 
Part One - play 2x - palm muted
e|------------------|
B|------------------|
G|-55555555---------|
D|-5555555533335555-|
A|-3333333333335555-|
E|---------11113333-|
Part Two - play 1x - chords with x's are palm muted
e|------------------|
B|------------------|
G|------------------|
D|-777~555~333~555~-|
A|-777~555~333~555~-|
E|-555~333~111~333~-|
   xx  xx  xx  xx


Verse Two (Rhythm Only): 
Part One: play 3x - chords with x's are palm muted
e|------------------|
B|------------------|
G|-555~----555~-----|
D|-555~333~555~555~-|
A|-333~333~333~555~-|
E|-----111~----333~-|
   xx  xx  xx  xx
Part Two: play 1x - chords with x's are palm muted
e|------------------------------------------|
B|------------------------------------------|
G|-555--------------------------------------|
D|-555~333~77777777555555553333333355555555-|
A|-333~333~77777777555555553333333355555555-|
E|-----111~55555555333333331111111133333333-|
   xx  xx  xxxxxxxxxxxxxxxxxxxxxxxxxxxxxxxx


CHORUS


BRIDGE



Notes/Comments:
-to clear up some confusion - the labels Part One or Part Two on a chunk of tab
   shows that there are more than one part in a single part of the song. (I.E.- 
   Two different chord progressions in the same verse.)  Rhythm and Lead 
   indicate separate guitars.
-on the Chorus part, A(7) means A-string, 7th fret
-on the Bridge there is a pause before the guitar comes in
-the first A5 and G5 chords below are in the first inversion

God Bless,
	   Sam Blake


Chords Used:
   A5 D5 E5* G5 C5 F5 G5 A5
e|-------------------------|
B|-------------------------|
G|-6--7--9---4--5----------|
D|-7--7--9---5--5--3--5--7-|
A|-4--5--7---2--3--3--5--7-|
E|-----------------1--3--5-|

http://www.ultimate-guitar.com/tabs/r/relient_k/gibberish_tab.htm

Track 14
Title:From End to End
Artist:Relient K
Album:Two Lefts
2003 gotee records

Hey guys. This is a great song. I love it.

Intro:

Riff 1
e----------------------------------------------------------------
B----------------------------------------------------------------
G----------------------------------------------------------------
D----------------------------------------------------------------
A--s10-10-10-10-10-10-10-10-10-10-10-10-10-10-10-10-10-9---------
E----------------------------------------------------------------

Em Bm D C# C G D        I'm not really sure about the lead part here...

Verse:

[Em Bm D C# Em Bm D C#] C G D  x2
      [palm muted]

Pre-Chorus (hey,hey...):

Em C G D C D

Chorus:

A-10-10-10-10-10-10-10-10-10-9

G [C G C] D Em G 
    [pm]
C G D C C G

Riff 2
e-3--2--3--3------------------------
B--3--3--3--3-----------------------
G---0--0--0--0----------------------
D-----------------------------------  (And then you'll...)
A-----------------------------------
E-----------------------------------

Intro (Discluding Riff 1)

Verse

Pre-Chorus

Chorus

Instrumental Thing:

Em C   G Am Em Em x3  G Am Em-G

Chorus (a little different this time):

C G D C C G Am Em C G D C C G

Riff 2 x3

During the 3 times Riff 2 is played play this on guitar 2:

e-----------------   Then  e----
B--------------12-         B----
G---------12-11---         G----
D-14-12-10--------         D----
A-----------------         A-14~
E-----------------         E----
Listen to the CD to figure it out.

Then 
e-3--2---
B--3--3--
G---0--0-

End with Em

                   Have fun
                       Later,
                           Ken A.K.A. Handsome
                              Questions? Email me at 
                                  ha_thats_mildly_amusing@hotmail.com

http://www.christianguitar.org/csong11045/Relient-K-From-End-to-End

Track 15
Jefferson Aero Plane: (100% correct)
Guitar1:
Intro:
Riff A: x2
e---------------------------------------------------------------------|
b---------------------------------------------------------------------|
g-4-4-4-4-4-4-4-4--4-4-4-4-4-4-4-4--5-5-5-5-5-5-5-5--5-5-5-5-5-5-5-5--|
D-------------5-5--------------3-3--------------2-2--------------1-1--|
G-------------0-0-----------------------------------------------------|
D---------------------------------------------------------------------|
Pm>>>>>>>>>>>      Pm>>>>>>>>>      Pm>>>>>>>>>      Pm>>>>>>>>>

Verse: Riff A x2 (Pm last chord strumming)
Chorus: Riff C: x2 (start measure on the word in parenthases)
 (Jefferson)  (and)          (but)            (all)
e---------------------------------------------------------------|
b---------------------------------------------------------------|
g---------------------------------------------------------------|
D-7-7-7-7--5—7|-5-7/9\7-5-5-0|-7-7-7-7--5--/10|-9-10/12\10-9-9-0|
G---------------------------------------------------------------|
D---------------------------------------------------------------|

End of Chorus:
e-------------------------------------------|
b-------------------------------------------|
g-------------------------------------------|
D-9-9-9-9--7-7|--7-7-7--5-5|-9-7-9-7-9-7-7~~|
G-7-7-7-7--7—5|--5-5-5--5-5|-7-7-7-7-7-7—5~~|
D-------------------------------------------|

Bridge: [Stacato (chords are short)]
Riff D: x2
e-----------------------------------|
b-----------------------------------|
g-----------------------------------|
D-5-5-5-5|-5-5-0-0|-2-2-2-2|-7-7-4-4|
G-5-5-5-5|-4-4-0-0|-2-2-2-2|-7-7-4-4|
D-----------------------------------|

Interlude: play Riff A x2
Verse
Chorus
Bridge x2

Bridge2: (play each measure twice)
e----------------------------------------------------------------|
b----------------------------------------------------------------|
g----------------------------------------------------------------|
D-99999999|-99999999|-99999999|-9--9--9--9--9--9--9--9-|-55555555|
G-77777777|-77777777|-88888888|-10-10-10-10-10-10-10-10|-55555555|
D----------------------------------------------------------------|
Then:
e-------|-|--------------|------------------|-----0-|-------|
b-----3~|~|-----3~-------|------------------|-----3~|-----3~|
g-----2~|~|-----0~--0-0-0|-0-0-0-0-0-0-0-0-0|-----2~|-----2~|
D-----4~|~|-----4~-------|-----------4-4-4-4|-----4~|-----4~|
G-2-2---|-|-0-0----------|------------------|-2-2---|-2-2---|
D-------|-|--------------|------------------|-------|-------|

e-------|-------------|-------|-|-------|-|-------|-|---|-|
b-----3~|-------------|-----3~|~|-----3~|~|-----3~|~|-3~|~|
g-----0~|--0-0-0-0-0-0|-----2~|~|-----0~|~|-----2~|~|-0~|~|
D-----4~|------------4|-----4~|~|-----4~|~|-----4~|~|-4~|~|
G-0-0---|-------------|-2-2---|-|-0-0---|-|-2-2---|-|-0~|~|
D-------|-------------|-------|-|-------|-|-------|-|---|~|

Rest Through this:
..really mean as much as he could... feels like I don't remember ever...
After that:
e---------------------------------------------------|
b---------------------------------------------------|
g---------------------------------------------------|
D-5--4--2-4|-22220000|-24222000|-44442222|-5--4--2-4|
G-2--2--2-2|-00000000|-00000000|-22222222|-2--2--2-2|
D---------------------------------------------------|

Finally: (rest one measure first)
                     / Play this twice \
e-------------------------------------------------|
b-------------------------------------------------|
g-00000000|-22244444|-00000000|-00000000|-00000000|
D-00000000|-00000000|-00000000|-00000000|-00000000|
G-44455555|---------|-44455555|-00000000|-44455555|
D-------------------------------------------------|

Followed by:
e----------|--------|------------|-|
b----------|--------|------------|-|
g-4--4-44-4|-44—4440|-5-5-55---5~|~|
D-5--5-55-3|-33-3330|-2-2-22---1~|~|
G-0--0—00--|--------|------------|-|
D----------|--------|------------|-|

Chorus

Bridge3: RiffD 4x

Outro:
Riff E: x2 (let ring)
e--------|--------|--------|---------|
b--------|--------|-------0|--------0|
g-------0|-------0|----0---|-----0---|
D----5---|----7---|--------|---------|
G-5------|-7------|-9------|-10------|
D--------|--------|--------|---------|

Then:
e--------|--------|---|
b--------|--------|---|
g-------0|-------0|-0~|
D----5---|----7---|-0~|
G-5------|-7------|-0~|
D--------|--------|---|
???????????????????????????????????????????????????????????????????????

Guitar2:
Intro:
Riff A: x2
e---------------------------------------------------------------------|
b---------------------------------------------------------------------|
g-4-4-4-4-4-4-4-4--4-4-4-4-4-4-4-4--5-5-5-5-5-5-5-5--5-5-5-5-5-5-5-5--|
D-5-5-5-5-5-5-5-5--3-3-3-3-3-3-3-3--2-2-2-2-2-2-2-2—-1-1-1-1-1-1-1-1--|
G-0-0-0-0-0-0-0-0-----------------------------------------------------|
D---------------------------------------------------------------------|
Pm>>>>>>>>>>>      Pm>>>>>>>>>      Pm>>>>>>>>>      Pm>>>>>>>>>

Verse: Riff A x2 (Pm last chord strumming)
Chorus: Riff C: x2
e------------------------------------|
b------------------------------------|
g------------------------------------|
D-5555-5-5|--5-5555|-0000-0-0|-0-0000|
G-5555-5-5|--5-5555|-0000-0-0|-0-0000|
D------------------------------------|

End of Chorus: (optional b/c guitar1 plays this)
e-------------------------------------------|
b-------------------------------------------|
g-------------------------------------------|
D-9-9-9-9--7-7|--7-7-7--5-5|-9-7-9-7-9-7-7~~|
G-7-7-7-7--7—5|--5-5-5--5-5|-7-7-7-7-7-7—5~~|
D-------------------------------------------|

Bridge: [Stacato (chords are short)]
Riff D: x2
e-----------------------------------|
b-----------------------------------|
g-----------------------------------|
D-5-5-5-5|-5-5-0-0|-2-2-2-2|-7-7-4-4|
G-5-5-5-5|-4-4-0-0|-2-2-2-2|-7-7-4-4|
D-----------------------------------|

Interlude: play Riff A x2
Verse
Chorus
Bridge x2

Bridge2:
e----|
b----|
g----|
D-0~~|
G-0~~|
D----|

Then: (don't play thru these lyrics)
...confuse more than anyone/an adjustment has begun to let feel the desp'rate need to 
what we undid undone/and maybe you could sympathize with the bags under my eyes/and we'll 
the signs are saying that we have used up all our.../Try to be a better person/to be a
better friend/to be a better son/ he tried to be a better someone that understand
the 
and that he can't show all the people all the things that really mean as much as he could...
Then: (play the first two measures "play each measure twice")
/these measures 2x\  /    play twice  \  /  play twice    \  /let ring\
e----------------------------------------------------------------------|
b----------------------------------------------------------------------|
g------------------------------------------------------------4|-4|5|5--|
D-00000000|-22222222|-00000000|-55555555|-44455555|55555555|-5|-3|2|1--|
G-00000000|-22222222|-00000000|-44455555|-00000000|44455555|-0|--|-|---|
D----------------------------------------------------------------------|
 Pm>>>>>>>>>>>>>>>>> Pm>>>>>>>

Chorus

Bridge3: Riff D x4

Outro: (rest to last chord which is below)
e----
b----
g-0--
D-0--
G-0--
D----
???????????????????????????????????????????????????????????????????????
Guitar3:
Intro:
RiffB: (w/octaver set to one octave above)
e----------------|---------------|---------------|----------------------|
b---12--13--15-12|--12--13--15-12|--12--13--15-12|-13-12----------13-12-|
g-12--12--12-----|12--12--12-----|12--12--12-----|-----------12-14------|
D----------------|---------------|---------------|------12-13-----------|
G----------------|---------------|---------------|----------------------|
D----------------|---------------|---------------|----------------------|

Verse (don't play)
Chorus (don't play)
Bridge (don't play)
Interlude:
Riff B 2x

Verse
Chorus
Bridge
+(don't play on this part)
Bridge2 (don't play)
Chorus
Bridge3: (don't play)
Outro: (don't play)
End on: (w/o octaver)
e----
b----
g-0--
D-0--
G-0--
D----
??????????????????????????????????????????????????????????
By: Weymier

http://www.ultimate-guitar.com/tabs/r/relient_k/jefferson_aero_plane_tab.htm

Track 16/ Bonus/Hidden Track:
Song: ?
Artist: Relient K??
Tuning: ??
Comments: ?? What is this? It sounds like a hip-hop song or something...is it supposed to
be there? Can anyone tell about why Relient K would put such a song on their album...I
couldn't even understand it. This is probably the last time you'll hear from me for a
while so I hope you enjoyed my final album and that this will help you to continue to
improve your guitar skills.
comments
print report bad tab
I want to post or [tab]
guest
You may want to rate the tab now too:
select rating
Please do not post tabs as comments. Select "correction" instead!