Oops, an error
Loading. Please wait.

We Wish You A Merry Christmas Tab

ver2
ver2

Whole song

Interactive

More versions @911Tabs.com
3,942 views 1 this week
no commentswrite comment
1 2 3 4 5
accurate
x 1
add to favorites launch autoscroll
font size
0
reset
Autoscroll
+/-
esc
set tempo
stop
Contributor
WARNING: You are trying to view
                                    content from Ultimate-Guitar.com
                                    in an unauthorized application,
                                    which is prohibited.

                                    Please use an official Ultimate
                                    Guitar Tabs application for iPhone,
                                    iPad or Android to access legitimate
                                    chords, guitar, bass, and drum tabs
                                    from Ultimate-Guitar.com database.

                                    Type "ultimate guitar tabs" in Apple
                                    App Store's or Android Market's
                                    search to find the application.
Relient K - We Wish You A Merry Christmas

Tabbed by Nate Broek

Guitar I	Distortion
Guitar II	Distortion


INTRO
    Gtr II
||-----------------|----------------|----------------|-----------------||
||-------3---2---3-|------3---2---3-|------3---2---3-|------3---2---3--||
||--4--4---4---4---|-0--0---0---0---|----------------|-----------------||
||--4--------------|----------------|-0--0---0---0---|-----------------||   
||-----------------|----------------|----------------|-0--0---0---0----||
||-----------------|----------------|----------------|-----------------||
|
|   Gtr I									x2
||-----------------|----------------|----------------|-----------------||
||-----------------|----------------|----------------|-----------------||
||--4--4-4-4-4-4-4-|----------------|-7--7-7-7-7-7-7-|-----------------||
||--4--4-4-4-4-4-4-|-5--5-5-5-5-5-5-|-7--7-7-7-7-7-7-|-7--7-7-7-7-7-7--||   
||--2--2-2-2-2-2-2-|-5--5-5-5-5-5-5-|-5--5-5-5-5-5-5-|-7--7-7-7-7-7-7--||
||-----------------|-3--3-3-3-3-3-3-|----------------|-5--5-5-5-5-5-5--||

VERSE 1
  Gtr I
|-----------------|-----------------|-----------------|-----------------|
|-----------------|-----------------|-----------------|-----------------|
|-4-4-4-4-4-4-4-4-|-----------------|-7-7-7-7-7-7-7-7-|-----------------|
|-4-4-4-4-4-4-4-4-|-5-5-5-5-5-5-5-5-|-7-7-7-7-7-7-7-7-|-7-7-7-7-7-7-7-7-|
|-2-2-2-2-2-2-2-2-|-5-5-5-5-5-5-5-5-|-5-5-5-5-5-5-5-5-|-7-7-7-7-7-7-7-7-|
|-----------------|-3-3-3-3-3-3-3-3-|-----------------|-5-5-5-5-5-5-5-5-|
 PM . . . . . . . . . . . . . . . . . . . . . . . . . . . . . . . . . . 

 
|-----------------|-----------------|-----------------|-----------------|
|-----------------|-----------------|-----------------|-----------------|
|-4-4-4-4-4-4-4-4-|-----------------|-7-7-7-7-7-7-7-7-|-----------------|
|-4-4-4-4-4-4-4-4-|-5-5-5-5-5-5-5-5-|-7-7-7-7-7-7-7-7-|-7-7-7-7-7-7-7-7-|
|-2-2-2-2-2-2-2-2-|-5-5-5-5-5-5-5-5-|-5-5-5-5-5-5-5-5-|-7-7-7-7-7-7-7-7-|
|-----------------|-3-3-3-3-3-3-3-3-|-----------------|-5-5-5-5-5-5-5-5-|

                                                        
|-----------------|-----------------|-----------------|-----------------|
|-----------------|-----------------|-----------------|-----------------|
|-7-7-7-7-7-7-7-7-|-----------------|-----------------|-7-7-7-7-7-7-7-7-|
|-7-7-7-7-7-7-7-7-|-7-7-7-7-7-7-7-7-|-5-5-5-5-5-5-7-7-|-7-7-7-7-7-7-7-7-|
|-5-5-5-5-5-5-5-5-|-7-7-7-7-7-7-7-7-|-5-5-5-5-5-5-7-7-|-5-5-5-5-5-5-5-5-|
|-----------------|-5-5-5-5-5-5-5-5-|-3-3-3-3-3-3-5-5-|-----------------|
 PM . . . . . . . . . . . . . . . . . . . . . . . . . . . . . . . . . . 


|-----------------|-----------------|-----------------|-----------------|
|-----------------|-----------------|-----------------|-----------------|
|-7-7-7-7-7-7-7-7-|-----------------|-----------------|-7-7-7-7-7-7-7-7-|
|-7-7-7-7-7-7-7-7-|-7-7-7-7-7-7-7-7-|-5-5-5-5-5-5-7-7-|-7-7-7-7-7-7-7-7-|
|-5-5-5-5-5-5-5-5-|-7-7-7-7-7-7-7-7-|-5-5-5-5-5-5-7-7-|-5-5-5-5-5-5-5-5-|
|-----------------|-5-5-5-5-5-5-5-5-|-3-3-3-3-3-3-5-5-|-----------------|


CHORUS
  Gtr I
|--------|-------|------------|------------|
|--------|-------|------------|------------|
|-7------|-------|-9--9-9-9-9-|------------|
|-7------|-------|-9--9-9-9-9-|-7--7-7-7-7-|
|-5------|-------|-7--7-7-7-7-|-7--7-7-7-7-|
|--------|-------|------------|-5--5-5-5-5-|


|-----------------|------------|----------|------|
|-----------------|------------|----------|------|
|-11--11-11-11-11-|------------|----------|-7----|
|-11--11-11-11-11-|-5--5-5-5-5-|-5--5--7--|-7----|
|--9---9--9--9--9-|-5--5-5-5-5-|-5--5--7--|-5----|
|-----------------|-3--3-3-3-3-|-3--3--5--|------|


|------------|------------|------------|-------------|
|------------|------------|------------|-------------|
|-7--7-7-7-7-|------------|-9--9-9-9-9-|-------------|
|-7--7-7-7-7-|-5--5-5-5-5-|-9--9-9-9-9-|-7--7-7-7-7--|
|-5--5-5-5-5-|-5--5-5-5-5-|-7--7-7-7-7-|-7--7-7-7-7--|
|------------|-3--3-3-3-3-|------------|-5--5-5-5-5--|


|-----------------|------------|----------|------|
|-----------------|------------|----------|------|
|-11--11-11-11-11-|------------|----------|-7----|
|-11--11-11-11-11-|-5--5-5-5-5-|-5--5--7--|-7----|
|--9---9--9--9--9-|-5--5-5-5-5-|-5--5--7--|-5----|
|-----------------|-3--3-3-3-3-|-3--3--5--|------|


BREAK
 Gtr II
|--------------|-------------------|-------------------|--------------------|
|----7--5--7---|-------7---5---7---|-------7---5---7-5-|-----5-5-5-5-5-5-5--|
|-4--7--6--7-0-|-------7---6---7---|-------7---6---7-6-|-----6-6-6-6-6-6-6--|
|--------------|-----------------0-|-------------------|--------------------|
|--------------|-------------------|-------------------|--------------------|
|--------------|-------------------|-------------------|--------------------|

 Gtr I
|--------------|-------------------|-------------------|--------------------|
|--------------|-------------------|-------------------|--------------------|
|--------------|-------------------|--7--7-7-7-7-7-7-7-|--------------------|
|------------5-|--5--5-5-5-5-5-5-5-|--7--7-7-7-7-7-7-7-|--7--7-7-7-7-7-7-7--|
|------------5-|--5--5-5-5-5-5-5-5-|--5--5-5-5-5-5-5-5-|--7--7-7-7-7-7-7-7--|
|------------3-|--3--3-3-3-3-3-3-3-|-------------------|--5--5-5-5-5-5-5-5--|

VERSE 2
  Gtr I
|-----------------|-----------------|-----------------|-----------------|
|-----------------|-----------------|-----------------|-----------------|
|-4-4-4-4-4-4-4-4-|-----------------|-7-7-7-7-7-7-7-7-|-----------------|
|-4-4-4-4-4-4-4-4-|-5-5-5-5-5-5-5-5-|-7-7-7-7-7-7-7-7-|-7-7-7-7-7-7-7-7-|
|-2-2-2-2-2-2-2-2-|-5-5-5-5-5-5-5-5-|-5-5-5-5-5-5-5-5-|-7-7-7-7-7-7-7-7-|
|-----------------|-3-3-3-3-3-3-3-3-|-----------------|-5-5-5-5-5-5-5-5-|


|-----------------|-----------------|-----------------|-----------------|
|-----------------|-----------------|-----------------|-----------------|
|-4-4-4-4-4-4-4-4-|-----------------|-7-7-7-7-7-7-7-7-|-----------------|
|-4-4-4-4-4-4-4-4-|-5-5-5-5-5-5-5-5-|-7-7-7-7-7-7-7-7-|-7-7-7-7-7-7-7-7-|
|-2-2-2-2-2-2-2-2-|-5-5-5-5-5-5-5-5-|-5-5-5-5-5-5-5-5-|-7-7-7-7-7-7-7-7-|
|-----------------|-3-3-3-3-3-3-3-3-|-----------------|-5-5-5-5-5-5-5-5-|


|----------|------------|------------|--------|
|----------|------------|------------|--------|
|-7--------|------------|------------|--------|
|-----hold-|------------|------------|--------|
|-5--------|------------|------------|--------|
|----------|------------|------------|--------|


|-----------------|-----------------|-----------------|-----------------|
|-----------------|-----------------|-----------------|-----------------|
|-7-7-7-7-7-7-7-7-|-----------------|-----------------|-7-7-7-7-7-7-7-7-|
|-7-7-7-7-7-7-7-7-|-7-7-7-7-7-7-7-7-|-5-5-5-5-5-5-7-7-|-7-7-7-7-7-7-7-7-|
|-5-5-5-5-5-5-5-5-|-7-7-7-7-7-7-7-7-|-5-5-5-5-5-5-7-7-|-5-5-5-5-5-5-5-5-|
|-----------------|-5-5-5-5-5-5-5-5-|-3-3-3-3-3-3-5-5-|-----------------|


CHORUS
 Gtr I
|--------|-------|------------|---------------|
|--------|-------|------------|---------------|
|-7------|-------|-9--9-9-9-9-|---------------|
|-7------|-------|-9--9-9-9-9-|-7--7-7-7-7----|
|-5------|-------|-7--7-7-7-7-|-7--7-7-7-7----|
|--------|-------|------------|-5--5-5-5-5----|


|-----------------|------------|----------|------|
|-----------------|------------|----------|------|
|-11--11-11-11-11-|------------|----------|-7----|
|-11--11-11-11-11-|-5--5-5-5-5-|-5--5--7--|-7----|
|--9---9--9--9--9-|-5--5-5-5-5-|-5--5--7--|-5----|
|-----------------|-3--3-3-3-3-|-3--3--5--|------|


|------------|------------|------------|---------------|
|------------|------------|------------|---------------|
|-7--7-7-7-7-|------------|-9--9-9-9-9-|---------------|
|-7--7-7-7-7-|-5--5-5-5-5-|-9--9-9-9-9-|-7--7-7-7-7----|
|-5--5-5-5-5-|-5--5-5-5-5-|-7--7-7-7-7-|-7--7-7-7-7----|
|------------|-3--3-3-3-3-|------------|-5--5-5-5-5----|


|-----------------|------------|----------|------|
|-----------------|------------|----------|------|
|-11--11-11-11-11-|------------|----------|-7----|
|-11--11-11-11-11-|-5--5-5-5-5-|-5--5--7--|-7----|
|--9---9--9--9--9-|-5--5-5-5-5-|-5--5--7--|-5----|
|-----------------|-3--3-3-3-3-|-3--3--5--|------|


ENDING
 Gtr I clean
|-----------------------------|------------------------------|
|-----------------------------|------------------------------|
|-----------------------------|------------------------------|
|-4-4-4-4---4-4-4-4-----------|-4-4-4-4---4-4-4-4------------|
|-2-2-2-2---2-2-2-2---5-(5)---|-2-2-2-2---2-2-2-2---5-(5)----|
|---------------------3-(3)---|---------------------3-(3)----|

 Gtr I 
|-----------------------------|------------------------------|
|-----------------------------|------------------------------|
|-----------------------------|------------------------------|
|-4-4-4-4---4-4-4-4-----------|------------------------------|
|-2-2-2-2---2-2-2-2---5-(5)---|-7-7-7-7---7-7-7-7---7-(7)----|
|---------------------3-(3)---|-5-5-5-5---5-5-5-5---5-(5)----|


 Gtr II
||-----------------|----------------|----------------|---------------|
||--0-0-0-7--5---7-|---5--5-5h=7----|-0-0-0-7--5---7-|---5--7----5---|
||--------7--6---7-|---6--6-6h=7----|-------7--6---7-|---6--7----6---|
||-----------------|----------------|----------------|---------------|
||-----------------|----------------|----------------|---------------|
||-----------------|----------------|----------------|---------------|
|
|Gtr I
||-----------------|----------------|----------------|---------------|
||-----------------|----------------|----------------|---------------|
||--4-4-4-4----4-4-|-4-4------------|-4-4-4-4----4-4-|-4-4-----------|
||--4-4-4-4----4-4-|-4-4----5-(5)---|-4-4-4-4----4-4-|-4-4----5-(5)--|
||--2-2-2-2----2-2-|-2-2----5-(5)---|-2-2-2-2----2-2-|-2-2----5-(5)--|
||-----------------|--------3-(3)---|----------------|--------3-(3)--|


|----------------|----------------|----------------|-----------------||
|-0-0-0-7--5---7-|---5--7----5----|-0-0-0-7--5---7-|---5--7----5-----||
|-------7--6---7-|---6--7----6----|-------7--6---7-|---6--7----6-----||
|----------------|----------------|----------------|-----------------||
|----------------|----------------|----------------|-----------------||
|----------------|----------------|----------------|-----------------||
|                                                                              x2
|----------------|----------------|----------------|-----------------||
|----------------|----------------|----------------|-----------------||
|-4-4-4-4----4-4-|-4-4------------|----------------|-----------------||
|-4-4-4-4----4-4-|-4-4----5-(5)---|-7-7-7-7----7-7-|-7-7----7-(7)----||
|-2-2-2-2----2-2-|-2-2----5-(5)---|-7-7-7-7----7-7-|-7-7----7-(7)----||
|----------------|--------3-(3)---|-5-5-5-5----5-5-|-5-5----5-(5)----||

 Gtr 1
|----------------|----------------|----------------|----------------|
|-0-0-0-7--5---7-|---5--5-5h=7----|-0-0-0-7--5---7-|---5--7----5----|
|-------7--6---7-|---6--6-6h=7----|-------7--6---7-|---6--7----6----|
|----------------|----------------|----------------|----------------|
|----------------|----------------|----------------|----------------|
|----------------|----------------|----------------|----------------|
|Gtr 2
|----------------|----------------|----------------|----------------|
|----------------|----------------|----------------|----------------|
|-4-4-4-4----4-4-|-4-4------------|-4-4-4-4----4-4-|-4-4------------|
|-4-4-4-4----4-4-|-4-4----5-(5)---|-4-4-4-4----4-4-|-4-4----5-(5)---|
|-2-2-2-2----2-2-|-2-2----5-(5)---|-2-2-2-2----2-2-|-2-2----5-(5)---|
|----------------|--------3-(3)---|----------------|--------3-(3)---|


|----------------|----------------|----------------|----------------|
|-0-0-0-7--5---7-|---5--7----5----|-0-0-0-7--5---7-|---5--7----5----|
|-------7--6---7-|---6--7----6----|-------7--6---7-|---6--7----6----|
|----------------|----------------|----------------|----------------|
|----------------|----------------|----------------|----------------|
|----------------|----------------|----------------|----------------|
|								    
|----------------|----------------|----------------|----------------|
|----------------|----------------|----------------|----------------|
|-4-4-4-4----4-4-|-4-4------------|----------------|----------------|
|-4-4-4-4----4-4-|-4-4----5-(5)---|-7-7-7-7----7-7-|-7-7----7-(7)---|
|-2-2-2-2----2-2-|-2-2----5-(5)---|-7-7-7-7----7-7-|-7-7----7-(7)---|
|----------------|--------3-(3)---|-5-5-5-5----5-5-|-5-5----5-(5)---|
comments
We did not receive enough feedback on this tab! Please rate:
print report bad tab
1 2 3 4 5
I want to post or [tab]
guest
You may want to rate the tab now too:
select rating
Please do not post tabs as comments. Select "correction" instead!