Oops, an error
Loading. Please wait.

Wits All Been Done Before Tab

241 views 1 this week
no commentswrite comment
1 2 3 4 5
excellent!
x 2
Autoscroll
+/-
esc
set tempo
stop
Contributor
Difficulty
WARNING: You are trying to view
                                    content from Ultimate-Guitar.com
                                    in an unauthorized application,
                                    which is prohibited.

                                    Please use an official Ultimate
                                    Guitar Tabs application for iPhone,
                                    iPad or Android to access legitimate
                                    chords, guitar, bass, and drum tabs
                                    from Ultimate-Guitar.com database.

                                    Type "ultimate guitar tabs" in Apple
                                    App Store's or Android Market's
                                    search to find the application.
I didn't tab this, I just found it. Enjoy.


Song: Wit's All Been Done Before
Artist: Relient K
Album: Employee Of The Month EP
Tabbed By: Lorne Singbiel(The One And Only Me)

                        **************************************
                        *     Wit's All Been Done Before     *
                        **************************************

INTRO CHORDS - This is the main part that you hear right when the song starts.
e|------------------------------------------------------------|
B|------------------------------------------------------------|
G|--4----------4----------4-----------------------------------|
D|--4----2--4--4----2--4--4-----------------------------------|
A|--2----2--4--2----2--4--2-----------------------------------|
E|-------0--2-------0--2--------------------------------------|


PICKING RIFF 1(Clean) - This part starts off at the beginning along with
the intro chords and repeats 2x but it's connected to the first half of
the verse(repeat another 2x). And then it comes in right after the first
chorus(repeat 2x) and is connected to the first half of the second verse
(repeat another 2x for this as well). Then it is played 2x at the very
end. When you listen to the song you'll know what I mean.
e|-----------------------------------|
B|-----------------------------------|
G|------------4--4-4--6--6-6--4--4-4-|
D|----4--4-422-22-2-44-44-4-22-22-2--|
A|--22-22-2--------------------------|
E|-----------------------------------|


VERSE 2ND HALF - This is played on the second half of each verse and
this whole part is PALM MUTED ->EXCEPT<- for the last seven notes which
are picked quite quickly and ring out
e|------------------------------------------------------------------>
B|------------------------------------------------------------------>
G|--4-4-4-4-4-4-4-4-4-4-4-4-4-4-4-4-4-4-4-4-4-4-4-4-4-4-4-4-4-4-4-4->
D|--4-4-4-4-4-4-4-4-4-4-4-4-4-4-4-4-4-4-4-4-4-4-4-4-4-4-4-4-4-4-4-4->
A|--2-2-2-2-2-2-2-2-2-2-2-2-2-2-2-2-2-2-2-2-2-2-2-2-2-2-2-2-2-2-2-2->
E|------------------------------------------------------------------>

e|------------------------------------------------------------------|
B|------------------------------------------------------------------|
G|4-4-4-4-4-4-4-4-4-4-4-4-4-4-4-4-4-4-4-4-4-4-4-4-444-4444----------|
D|4-4-4-4-4-4-4-4-4-4-4-4-4-4-4-4-4-4-4-4-4-4-4-4-------------------|
A|2-2-2-2-2-2-2-2-2-2-2-2-2-2-2-2-2-2-2-2-2-2-2-2-------------------|
E|------------------------------------------------------------------|


PRE-CHORUS - This is the part that comes right after the verse and just
before the chorus. the x's, in this case, mean PALM muted(so do the ones
in my "For The Band" tab).
e|------------------------------------------------------------------|
B|------------------------------------------------------------------|
G|--xx4-------------xx4-------------x4-------------xx4--------------|
D|--xx4-xx4-xx6-xx2-xx4-xx4-xx6-2-2-x4-xx4-xx6-xx2-xx4-xx4-6-2------|
A|--xx2-xx4-xx6-xx2-xx2-xx4-xx6-2-2-x2-xx4-xx6-xx2-xx2-xx4-6-2------|
E|------xx2-xx4-xx0-----xx2-xx4-0-0----xx2-xx4-xx0-----xx2-4-0------|


MAIN CHORUS - Let it ring out with lots and lots of dist. On the second
and last chorus this is repeated 2x. There is another guitar in there
doing fill in parts, but they're pretty easy to figure out so I'm almost
sure you'll figure it out by listening to the song. Unless you've never
played a guitar before.
e|------------------------------------------------------------------------|
B|------------------------------------------------------------------------|
G|--4--44--44----------------------------------------9--------3--------4--|
D|--4--44--44--------2--22--22--------6--4--2--------9--------3--------4--|
A|--2--22--22--------2--22--22--------6--4--2--------7--------1--------2--|
E|-------------------0--00--00--------4--2--0-----------------------------|


PICKING RIFF 2(Clean) - This is played right after the second chorus ONLY
and it is different than "PICKING RIFF 1". And funner to play too.
e|------------------------------------------------------------------------|
B|------------------------------------------------------------------------|
G|----8---8---9---9---11---11---9---9---8---8---9---9---11---11-9---------|
D|--9---99--9---99--9----99---9---99--9---99--9---99--9----99-------------|
A|------------------------------------------------------------------------|
E|------------------------------------------------------------------------|


AFTER "PICKING RIFF 2" RIFF - This is the part that comes right after
"Picking Riff 2". This part uses distortion. Some parts of it are PALM
MUTED and some parts are STOPPED after each chord strum to make it sound
sort of choppy. I labeled where to do that kind of stuff so you don't have
to figure it out yourself. Aren't I nice?
e|-------------------------------------------------------------------------->
B|-------------------------------------------------------------------------->
G|--------6----2----4-------------------6--6--6--6--2--2--2--2--4--4--4--4-->
D|--2--4--6----2----4--------4-4--44-44-6--6--6--6--2--2--2--2--4--4--4--4-->
A|--2--4--4----0----2--------4-4--44-44-4--4--4--4--0--0--0--0--2--2--2--2-->
E|--0--2---------------------2-2--22-22------------------------------------->
                                        |^^^^^These are played choppy^^^^^|

e|--------------------------------------------------------------------->
B|--------------------------------------------------------------------->
G|---------------4-----------------------------------------------4--4-->
D|4----6----2----4----4----6----2--------6-6-6-6-4-4-4-4-2-2-2-2-4--4-->
A|4----6----2----2----4----6----2--------6-6-6-6-4-4-4-4-2-2-2-2-2--2-->
E|2----4----0---------2----4----0--------4-4-4-4-2-2-2-2-0-0-0-0------->
                                         |^^^^^^Palm Muted^^^^^^|

e|---------------------------------------------------------------->
B|---------------------------------------------------------------->
G|------------------------4-4-4-4-------------------------4-4-4-4->
D|6-6-6-6-4-4-4-4-2-2-2-2-4-4-4-4-6-6-6-6-4-4-4-4-2-2-2-2-4-4-4-4->
A|6-6-6-6-4-4-4-4-2-2-2-2-2-2-2-2-6-6-6-6-4-4-4-4-2-2-2-2-2-2-2-2->
E|4-4-4-4-2-2-2-2-0-0-0-0---------4-4-4-4-2-2-2-2-0-0-0-0--------->
 |^^^^^^^^^^^^^^^^^^^^^^^^^^^^Palm Muted^^^^^^^^^^^^^^^^^^^^^^^^^|

e|----------------------------------------------------------------|
B|----------------------------------------------------------------|
G|----------------------------------------------------------------|
D|6-6-6-6-6-6-6-6-6-6-6-6-6-6-6-6-4----4----4----4----------------|
A|6-6-6-6-6-6-6-6-6-6-6-6-6-6-6-6-4----4----4----4----------------|
E|4-4-4-4-4-4-4-4-4-4-4-4-4-4-4-4-2----2----2----2----------------|
 |^^^^^^^^Still Palm Muted^^^^^^^|

After this the chorus is played a few times again and the song ends
of with "Picking Riff 1" repeating 2 times. and that pretty much covers
everything. THIS IS EXACTLY RIGHT. I even played along with the actual
song to make SURE that it was not off. There IS another guitar that pops
in a couple of times but not very often and only to do little fill-in
parts. Most of the song is just one guitar.

                  HAVE FUN AND GOD BLESS!!!
comments
We did not receive enough feedback on this tab! Please rate:
print report bad tab
1 2 3 4 5
I want to post or [tab]
guest
You may want to rate the tab now too:
select rating
Please do not post tabs as comments. Select "correction" instead!