Oops, an error
Loading. Please wait.

Collapse Into Now Tab

by Rem
4,322 views 6 this week
no commentswrite comment
1 2 3 4 5
accurate
x 2
Autoscroll
+/-
esc
set tempo
stop
Contributor
WARNING: You are trying to view
                                    content from Ultimate-Guitar.com
                                    in an unauthorized application,
                                    which is prohibited.

                                    Please use an official Ultimate
                                    Guitar Tabs application for iPhone,
                                    iPad or Android to access legitimate
                                    chords, guitar, bass, and drum tabs
                                    from Ultimate-Guitar.com database.

                                    Type "ultimate guitar tabs" in Apple
                                    App Store's or Android Market's
                                    search to find the application.
------------------------------------------------------------------------
		DISCOVERER - REM
------------------------------------------------------------------------
Tabbed by: Barnaby Wilde
Email:

Verse/Intro/Bridge
Guitar 1:
e|-2---2---0---2-------|
B|-0---0---0---0-------|
G|-4---4---2---4-------|
D|-4---4---2---4-------|
A|---------------------|
E|---------------------|

Guitar 2:
e|-4-5-7-9-10h-9-10h-9-9-10h-9-5-4-5h-4-2---|
B|------------------------------------------|
G|------------------------------------------|
D|------------------------------------------|
A|------------------------------------------|
E|------------------------------------------|

Chorus:
e|---------0--0-0------0---0---0---0--|
B|---------0-0-0-0-----0---0---0---0--|
G|-3---1---8-----------4---7---7--11--|
D|-4---2---9-------x3--5---7---7---9--|
A|-4---2---9-----------5---5---5---0--|
E|-2---0---7-----------3---0---0---0--|

e|--0---0--------0---0---|
B|--0---0--------0---0---|
G|-11---4--------4---7---|
D|--9---2--------5---7---|
A|--0---0---x3---5---5---|
E|--0---0--------3---0---|


------------------------------------------------------------------------
		ALL THE BEST - REM
------------------------------------------------------------------------
Tabbed by: Barnaby Wilde
Email:

Intro/Verse
Guitar 1
e|---------0---0---0---0---|
B|---------0---0---0---0---|
G|---------4---4---7---6---|
D|---------4---4---7---x---|
A|-0-0-0-0-2---2---5---4---|
E|-2-0-2-0-0---0---0---0---|

Guitar 2
e|-777777777777777710-1099999999----|
B|-00000000000000000000000000000----|
G|----------------------------------|
D|----------------------------------|
A|----------------------------------|
E|----------------------------------|

Chorus
e|-0---0--0---0---0--0---0---0--0---0---3---|
B|-0---3---3--0---3---3--0---3---3--2---3---|
G|-1---2-2--2-1---2-2--2-1---2-2--2-2---0---|
D|-2---0-0----2---0-0----2---0-0----2---0---|
A|-2----------2----------2---------0----2---|
E|-0----------0----------0---------0----3---|

Middle Bridge
e|-0----0---0----0----0----0---|
B|-0----0---0----0----0----0---|
G|-7----9---7----9---10---12---|
D|-7---10---7---10---10---12---|
A|-5---10---5---10----8---10---|
E|-0----8---0----8----0----0---|

e|-----------------------|
B|-----------------------|
G|-7-7-5-7-7-9-----------|
D|--7-----7---8-7-10-12--|
A|---------------8-----10|
E|-----------------------|

End
Guitar 1
e|-2--|
B|-0--|
G|-4--|
D|-4--|
A|-0--|
E|-0--|
Guitar 2
e|--0---|
B|--0---|
G|-11---|
D|--9---|
A|--0---|
E|--0---|


------------------------------------------------------------------------
		UBERLIN - REM
------------------------------------------------------------------------
Tabbed by: Barnaby Wilde
Email:

Intro/Transition Riff:
e|------------|
B|-3-1--------|
G|----3-2-0---|
D|------------|
A|------------|
E|------------|

Verse
Guitar 1
e|-3-------------1----------|
B|-3-------------3-3--------|
G|-3-3-2---------2--2-------|
D|-5----3--------0---3------|
A|-5------------------------|
E|-3------------------------|

Guitar 2
e|-3--3---1--1---1--1---1--1---|
B|-3---3--3---3--3---3--1---1--|
G|-3----0-3----0-2----0-2----0-|
D|-5-5----3-3----0-0----3-3----|
A|-5------1-------------3------|
E|-3------1-------------1------|

Guitar 1
e|-3-------------1----|
B|-3-------------1----|
G|-3-3-2---------2----|
D|-5----3--------3----|
A|-5-------------3----|
E|-3-------------1----|

Guitar 2
e|-3--3---1--1---1--1--1--1---|
B|-3---3--3---3--1---1--1--1--|
G|-3----0-3----0-2----0--0--0-|
D|-5-5----3-3----3-3----------|
A|-5------1------3------------|
E|-3------1------1------------|

Chorus:
e|-3--3--3--3---1--1--1--1------|
B|-4---0--0--0--3---3--3--3-----|
G|-0----4--4--4-2----2--2--2----|
D|-5-5----------0-0---------x2--|
A|------------------------------|
E|------------------------------|

e|-3-3---3-3---1-1---1-1----|
B|-4--2--3--3--3--3--1--1---|
G|-5---5-3---3-3---3-2---2--|
D|-5-----5-----3-----3------|
A|-3-----5-----1-----3------|
E|-3-----3-----1-----1------|


e|-3-3---3-3---1-1--1--1---------|
B|-4--4--3--3--3--3--3--3-1------|
G|-5---5-3---3-2---2--2----3-2-0-|
D|-5-----5-----0-----------------|
A|-3-----5-----------------------|
E|-3-----3-----------------------|

Middle Bridge:
Guitar 1
e|-4---4---3---3---6---6---6------|
B|-4---4---3---3---6---6---6------|
G|-6---6---5---5---8---8---7------|
D|-6---6---5---5---8---8---8------|
A|-4---4---3---3---6---6---8---x2-|
E|-4---4---3---3---6---6---6------|
Guitar 2
e|-------------------------------|
B|-------------------------------|
G|-6---6-8-5---5-6-8---8-10-7----|
D|-x---x-x-x---x-x-x---x--x-x----|
A|-4---4-6-3---3-4-6---6--8-5----|
E|----------------------------x2-|
End on Gm.


------------------------------------------------------------------------
		OH MY HEART - REM
------------------------------------------------------------------------
Tabbed by: Barnaby Wilde
Email:

Intro:
e|-(5)------------|
B|---(6)-0>0-0-0--|
G|-------2>4-2-0--|
D|-------0>0-0-0--|
A|----------------|
E|----------------|

Verse:
e|-0-0-0-0-1---1-1---|
B|-1-1-1-1-1---1-1---|
G|-2-0-0-0-2---0-2---|
D|-2-2-2-0-3---3-3---|
A|-0-2-3-2-----------|
E|-0-0-0-3-----------|

Mandolin
Verse:
e|-000000000000000333331111100011111---|
A|-000002222233333000000000000000000---|
D|-000000000000000000003333322233333---|
G|-------------------------------------|

Mandolin
Bridge to Chorus/Chorus:
e|-0---3---1---1-----|
A|-3---2---0---0-----|
D|-2---0---3---3-----|
G|-0---0---0---0-----|

Bridge to Chorus/ Chorus:
e|-0---3---1---------|
B|-1---3---3---------|
G|-0---0---2---------|
D|-2---0---0---------|
A|-3---2-------------|
E|-0---3-------------|

Middle Bridge:
e|-6---5---1---3---6---5---4---|
B|-6---5---1---3---6---5---4---|
G|-7---5---2---4---7---5---5---|
D|-8---7---3---5---8---7---6---|
A|-8---7---3---5---8---7---6---|
E|-6---5---1---3---6---5---4---|

Mandolin:
e|-000000000000000000000000000000000--|
A|-111100000000000011110000000000000--|
D|-000000003333555500000000666666667--|
G|------------------------------------|

End:
e|-1---3---5---3---0-----|
B|-3---5---6---5---1-----|
G|-2---4---5---4---2-----|
D|-0---0---0---0---2-----|
A|-----------------0-----|
E|-----------------0-----|

Mandolin
e|-1---3---5---3---1---|
A|-0---0---0---0---0---|
D|-3---------------3---|
G|-0---------------0---|


------------------------------------------------------------------------
		IT HAPPENED TODAY - REM
------------------------------------------------------------------------
Tabbed by: Barnaby Wilde
Email:

Intro:
e|----------------------------------------|
B|----------------------------------------|
G|------12-----12-----12--12-----12-------|
D|-10-----10-10--10-10--10--10-10--10-10--|
A|----------------------------------------|
E|----------------------------------------|

Verse:
e|-2-2-2-0-0-0-0---2-2-2-0-3----|
B|-3-3-3-3-2-2-2---3-3-3-3-3----|
G|-2-2-2-2-2-2-2---4-4-4-4-0----|
D|-0-0-0-0-2-2-2---4-4-4-4-0----|
A|---------0-0-0---2-2-2-0-2----|
E|-----------------2-2-2-0-3----|

e|-2-2-2-0-0-0-0---0--0--0--0--0----|
B|-3-3-3-3-2-2-2---0---0--0--0--0---|
G|-2-2-2-2-2-2-2---0----0--0--0--0--|
D|-0-0-0-0-2-2-2---2-2--------------|
A|---------0-0-0---2----------------|
E|-----------------0----------------|

Chorus:
e|-3--3--3--3---0--0--0--0-----|
B|-3---3--3--3--0---0--0--0----|
G|-0----0--0--0-2----2--2--2---|
D|-2-2----------2-2------------|
A|-3------------0--------------|
E|-0---------------------------|

Mandolin
e|-0000000000000000------------------|
A|-22222222222222220000000000000000--|
D|-----------------2222222222222222--|
G|-----------------------------------|

Bridge to End:
e|-3---2---0---0------|
B|-3---3---2---2------|
G|-0---2---2---2------|
D|-0---0---2---2------|
A|-2-------0---0------|
E|-3-------0---0------|

Mandolin:
e|-3---2---0-2---5----|
A|-2---0---0-0---4----|
D|-0---0---0-0---2----|
G|-0---2---2-2---2----|

Transition Bridge:
e|-3--3--3--3---2--2--2--2---0--0--0--0---0--0--0--0---|
B|-3---3--3--3--3---3--3--3--0---0--0--0--0---0--0--0--|
G|-5-5--5--5--5-4----4--4--4-2----2--2--2-0----0--0--0-|
D|-5------------4------------2-2----------2-2----------|
A|-3------------2-------------------------2------------|
E|-3------------2-------------------------0------------|

Mandolin:
Strum/Pick first chord, jangle note
e|-0------------x------------5------------0------------|
A|-3-3333333333-2-2222222222-4-0000000000-2------------|
D|-5------------0------------2------------2-2222222222-|
G|-0------------3------------2------------0------------|


------------------------------------------------------------------------
		EVERYDAY IS YOURS TO WIN - REM
------------------------------------------------------------------------
Tabbed by: Barnaby Wilde
Email:

Verse/Chorus
e|---------------------------------|
B|--8-----10---------10------10----|
G|---9-------------11--11--11--11--|
D|-9--9>11--9-11-12------11--------|
A|---------------------------------|
E|---------------------------------|

Verse/ Chorus Riff
e|------------------------------|
B|------------------------------|
G|-7>9-9>11-9<7-6-4-2-----------|
D|--------------------4-2-0---0-|
A|-------------------------2-0--|
E|------------------------------|

Middle Bridge
e|------------------------|
B|------------------------|
G|------------------------|
D|--5-3-2-3-2-5-3-2-3-4---|
A|-3---------3------------|
E|------------------x2----|

End
e|-------------------------------------|
B|--8-----10---------------------------|
G|---9------------------11-------11----|
D|-9--9>11--9-11-12-9-12--12-9-12--12--|
A|-------------------------------------|
E|-------------------------------------|


------------------------------------------------------------------------
		MINE SMELL LIKE HONEY - REM
------------------------------------------------------------------------
Tabbed by: Barnaby Wilde
Email:

Intro:
e|-0-0-0-0---0---0---0-0-0--|
B|-0-0-0-2---5---2---2-3-5--|
G|-9-6-4-2---2---2---2-2-2--|
D|-9-6-4-2---2---2---2-2-2--|
A|-7-4-2-0---0---0---0-0-0--|
E|--------------------------|

Verse:
e|-0---0---0--0--0--0----------|
B|-0---0---0---0--0--0---------|
G|-7---4---6-6--6--6--6--------|
D|-7---5---7-------------------|
A|-5---5---7-------------------|
E|-0---3---5-------------------|

Bridge to Chorus:
e|-0--0--0--0---0--0--0--0--------|
B|-0---0--0--0--0---0--0--0-------|
G|-4-4--4--4--4-2-2--2--2--2------|
D|-4------------4-------------x2--|
A|-0------------0-----------------|
E|--------------------------------|

Chorus:
e|-0---0---0------0---0---0-------|
B|-0---0---0------0---0---0-------|
G|-9---8---6------4---8---6-------|
D|-9---9---7-x3---5---9---7-------|
A|-7---9---7------5---9---7-------|
E|-0---7---5------3---7---5-------|

Middle Bridge:
Guitar 1
e|-0--0--0--0---0--0--0--0---0--0--0--0---0--3--0-|
B|-0---0--0--0--0---0--0--0--0---0--0--0--3---3-2-|
G|-4-4--4--4--4-2-2--2--2--2-4-4--4--4--4-2-2---2-|
D|-4------------4------------4------------0-----2-|
A|----------------------------------------------0-|
E|----------------------------------------------0-|

Guitar 2
e|-15--------15-7----------7-15--------15-10-9---|
B|--0---------0-0----------0--0---------0--0-0---|

Guitar 1
e|-0--0--0--0---0--0--0--0---0-|
B|-0---0--0--0--0---0--0--0--5-|
G|-4-4--4--4--4-2-2--2--2--2-4-|
D|-4------------4------------0-|
A|-----------------------------|
E|-----------------------------|

Guitar 2
e|-15--------15-7----------7-7-|
B|--0---------0-0----------0-5-|

Guitar 3
e|--------------------------19-|
B|--------------------------19-|

End:
Guitar  1
e|-0---0---0---0---|
B|-0---0---0---0---|
G|-4---8---8---6---|
D|-5---9---9---4---|
A|-5---9---9---0---|
E|-3---7---7---0---|


------------------------------------------------------------------------
		WALK IT BACK - REM
------------------------------------------------------------------------
Tabbed by: Barnaby Wilde
Email:

Bass Riff
e|--------------|
B|--------------|
G|--------------|
D|------2-5-----|
A|-5-0-2--------|
E|--------------|

Intro/ Chorus
e|-2---0-0---0------2---0-2--|
B|-3---2-0---0------3---3-3--|
G|-2---2-0---0------2---2-2--|
D|-0---0-0---2-x3---0---0-0--|
A|-----------2---------------|
E|-----------0---------------|

Verse
e|-2---0---3---2---0---|
B|-3---2---3---3---2---|
G|-2---2---0---4---2---|
D|-0---2---0---4---2---|
A|-----0---2---2---0---|
E|-----0---3---2---0---|

Verse Pick
e|---5---5---3---2---5--|
B|--7---5---3---3---5---|
G|-7---6---4---4---6----|
D|----------------------|
A|----------------------|
E|----------------------|

------------------------------------------------------------------------
		ALLIGATOR_AVIATOR_AUTOPILOT_ANTIMATTER - REM
------------------------------------------------------------------------
Tabbed by: Barnaby Wilde
Email:

Intro/ Riff
e|----------------------|
B|----------------------|
G|------0---0---0-------|
D|--7-5------0-0-0------|
A|-0---7-7-5--3----0----|
E|----------------------|

Or:
e|----------------------|
B|----------------------|
G|--2-0-0---0---0-------|
D|-----2-2-0-0-0-0------|
A|-0----------3----0----|
E|----------------------|

Verse
e|-5---3-5---|
B|-5---3-7---|
G|-6---4-7---|
D|-7---5-7---|
A|-7---5-5---|
E|-5---3-5---|

Bridge to Chorus
Guitar 1
e|-5---5--|
B|-5---7--|
G|-6---7--|
D|-7---7--|
A|-7---5--|
E|-5---5--|

Guitar 2
e|-0---0--|
B|-5---7--|
G|-6---7--|
D|--------|
A|--------|
E|--------|

Chorus
e|-5---7---10---12---5---3---5---7---10---12---5-|
B|-5---7---10---12---5---3---5---7---10---12---5-|
G|-6---8---11---13---6---4---6---8---11---13---6-|
D|-7---9---12---14---7---5---7---9---12---14---7-|
A|-7---9---12---14---7---5---7---9---12---14---7-|
E|-5---7---10---12---5---3---5---7---10---12---5-|

Lead
Follows E-D/A x3; G
e|----------------------------------------|
B|----------------------------------------|
G|-------------------------------5-7>9999-|
D|-7b9-7b9-7b9-7-5-7-5---5-57-5-7---------|
A|--------------------57h-7---------------|
E|----------------------------------------|

e|--------------------------8-7-8>10>12-15-12-17-|
B|--8-10-13-12-10-10b-8-11-9---------------------|
G|-9-9-----------------10------------------------|
D|-----------------------------------------------|
A|-----------------------------------------------|
E|-----------------------------------------------|

e|-15-12-10-12b-10-8-10-12h-10-8-10p-7-8p-7-5-3-5---0--|
B|--------------------------------------------------5--|
G|-----------------------------------------------------|
D|-----------------------------------------------------|
A|-----------------------------------------------------|
E|-----------------------------------------------------|

End on A.


------------------------------------------------------------------------
		THAT SOMEONE IS YOU - REM
------------------------------------------------------------------------
Tabbed by: Barnaby Wilde
Email:

Intro/Chorus to Verse Bridge: G

Verse
e|-5---5---4---|
B|-5---7---5---|
G|-6---7---6---|
D|-7---7---6---|
A|-7---5---4---|
E|-5---5---4---|

Chorus
e|-0---2---1---1---2---0---2---0---2---0---2---0-|
B|-0---2---1---1---3---0---3---2---3---2---3---2-|
G|-1---3---2---2---4---1---2---2---2---2---2---2-|
D|-2---4---3---3---4---2---0---2---0---2---0---2-|
A|-2---4---3---3---2---2-------0-------0-------0-|
E|-0---2---1---1---2---0-------0-------0-------0-|

End (From last G Bridge)
e|-3---2---0---2---0---2---0---3---2---|
B|-3---3---2---3---2---3---2---3---2---|
G|-4---2---2---2---2---2---2---4---3---|
D|-5---0---2---0---2---0---2---5---4---|
A|-5-------0-------0-------0---5---4---|
E|-3-------0-------0-------0---3---2---|

------------------------------------------------------------------------
		ME, MARLON BRANDO, MARLON BRANDO AND I - REM
------------------------------------------------------------------------
Tabbed by: Barnaby Wilde
Email:

Intro and End
e|-0--|
B|-1--|
G|-2--|
D|-3--|
A|-0--|
E|----|

Mandolin
e|-0---|
A|-0---|
D|-2---|
G|-0---|

Verse
e|-1---1-3-3>5-5---|
B|-3---3-3-3>5-5---|
G|-2---2-2-2---5---|
D|-0---0-0-0---0---|
A|-------------0---|
E|-------------5---|

Mandolin
e|-1-1--1--1--3>5-0-|
A|-0--0--0--0-----0-|
D|-0---0--0--0----2-|
G|-2--------------5-|

Chorus
e|-0---0------3---0------|
B|-1---1------0---1------|
G|-2---0------0---2------|
D|-3---2------0---3------|
A|-0---3------x---0------|
E|-----0--x2--3---0---x4-|

Mandolin
e|-0---0-0---0------3-3--3--3---0-0--0--3--0-----|
A|-0---0-0---0------2--2--2--2--0--0--0--0--0----|
D|-5---3-2---0------0---0--0--0-2---2--2--2--2---|
G|-0---0-0---0-x2---0-----------0-------------x4-|


------------------------------------------------------------------------
		BLUE - REM
------------------------------------------------------------------------
Tabbed by: Barnaby Wilde
Email:

Chord Progression
e|-0---2---0---------------|
B|-0---3---1---------------|
G|-0---2---0---------------|
D|-2---0---2---------------|
A|-2-------3---------------|
E|-0-------0---------------|

Lead 
e|---------------------0-----2-3>7-|
B|----------------7-7-7-0-3>5------|
G|------0-----9-7------------------|
D|-2-2-4-4-4-2---9---4-------------|
A|---------------------------------|
E|---------------------------------|

Michael Vocal Starts
e|--12-10--12---10-12-10--------|
B|-5-----13---10--------12----5-|
G|-------------------------2>4--|
D|------------------------------|
A|------------------------------|
E|------------------------------|

Patti Vocal Starts
e|-----0-----0-----0-12-------------|
B|-5-3-5-5-3-5-5-0-5-12-3-3-3>5-10--|
G|-----4-----4-----0---------0-4----|
D|----------------------------------|
A|----------------------------------|
E|------------------------------etc-|

End Blue (Under Chords)
e|------|
B|-12b--|
G|------|
D|------|
A|------|
E|------|

Discoverer Finale 
e|-2---2---0---2-------|
B|-0---0---0---0-------|
G|-4---4---2---4-------|
D|-4---4---2---4-------|
A|---------------------|
E|---------------------|

Guitar 2:
e|-4-5-7-9-10h-9-10h-9-9-10h-9-5-4-5h-4-2---|
B|------------------------------------------|
G|------------------------------------------|
D|------------------------------------------|
A|------------------------------------------|
E|------------------------------------------|
comments
We did not receive enough feedback on this tab! Please rate:
print report bad tab
1 2 3 4 5
I want to post or [tab]
guest
You may want to rate the tab now too:
select rating
Please do not post tabs as comments. Select "correction" instead!