Oops, an error
Loading. Please wait.

Dead Letter Office Tab

by Rem
717 views 1 this week
no commentswrite comment
1 2 3 4 5
please rate
Autoscroll
+/-
esc
set tempo
stop
Contributor
Hey! There's an official Ultimate Guitar app which is ideal
for learning songs when you're away from computer. Get the app
WARNING: You are trying to view
                                    content from Ultimate-Guitar.com
                                    in an unauthorized application,
                                    which is prohibited.

                                    Please use an official Ultimate
                                    Guitar Tabs application for iPhone,
                                    iPad or Android to access legitimate
                                    chords, guitar, bass, and drum tabs
                                    from Ultimate-Guitar.com database.

                                    Type "ultimate guitar tabs" in Apple
                                    App Store's or Android Market's
                                    search to find the application.
------------------------------------------------------------------------
		CRAZY - REM
------------------------------------------------------------------------
Tabbed by: Barnaby Wilde
Email:

Intro:
e|--3-3-3--5-----|
B|---------------|
G|---------------|
D|--------2------|
A|-2-3-2-0----x4-|
E|---------------|

Verse:
Guitar 1
e|--3-3-3--5-----|
B|---------------|
G|---------------|
D|--------2------|
A|-2-3-2-0----x4-|
E|---------------|

Guitar 2
e|------------------|
B|------------------|
G|---0--0-0--2------|
D|--0--0----2-2-----|
A|-2--3--2-0--------|
E|------------------|

Chorus:
Guitar 1
e|-0---0---0---0---0---0---2------------|
B|-1---1---1---1---1---1---3------------|
G|-2---2---0---0---2---2---2------------|
D|-3---3---2---2---3---3---0------------|
A|-0---0---3---3---0---0----------------|
E|-0---0---0---0---0---0----------------|

Guitar 2:
e|-0000000000000000000000000000000--|
B|-1111111111111111111111113333333--|
G|----------------------------------|
D|----------------------------------|
A|----------------------------------|
E|----------------------------------|

Guitar 2 (Variation Chorus)
e|--0--0--0-0--0--0-0--0--0-0--0--0-|
B|---1--1----1--1----1--1----3--3---|
G|-2--2--2-0--0--0-2--2--2-2--2--2--|
D|----------------------|
A|----------------------|
E|----------------------|

Bridge:
e|-------------------------12<2--|
B|-------------------------12<2--|
G|-------------------------------|
D|------------2-1-2-1-2>5-5------|
A|-0-2-3-2-0-0-------------------|
E|-------------------------------|

Bridge Outro (Chorus Chords):
e|----------------------------|
B|------------550-------------|
G|-----5555-7h770-----7777777-|
D|-5>7-7777-7-----x3--7777777-|
A|----------------------------|
E|----------------------------|

End on:
e|-0----|
B|-0----|
G|-0----|
D|-2----|
A|-0----|
E|-0----|

------------------------------------------------------------------------
		THERE SHE GOES AGAIN - REM
------------------------------------------------------------------------
Tabbed by: Barnaby Wilde
Email:

Intro/Bridge/Outro
e|-2222-222-00-0---00---00--|
B|-4444-333-00-2---02---02--|
G|-4444-222-11-2---22---22--|
D|-4444-000-22-2---22---22--|
A|-2222-----22-0---00---00--|
E|-2222-----00-0---00---00--|

Verse
e|-0---00---2-----|
B|-2---02---3-----|
G|-2---22---2-----|
D|-2---22---0-----|
A|-0---00---------|
E|-0---00---------|

Chorus
e|-2---2---2---2---0---0--|
B|-3---3---3---3---0---2--|
G|-4---2---4---2---1---2--|
D|-4---0---4---0---2---2--|
A|-2-------2-------2---0--|
E|-2-------2-------0---0--|

Lead
e|-555555555-55555555-10-10-10-10-10-10----|
B|-555555555-55575575-10-10-12-10-12-10----|
G|-666444666-66666666-11-11-11-11-11-11----|
D|--INTRO---(-x4-----------------------)---|
A|-----------------------------------------|
E|-----------------------------------------|

------------------------------------------------------------------------
		BURNING DOWN - REM
------------------------------------------------------------------------
Tabbed by: Barnaby Wilde
Email:

Intro/Chorus
e|-0---0---0---0------0-----0--0-0-----0-----|
B|-2---0---2---0-------0-----0----0----------|
G|-2---2---2---2---4>6--6-----0-6--6------0--|
D|-2---2---2---2---5>7---7>9--9-7---7>9-9b---|
A|-0---0---0---0-----------------------------|
E|-0---0---0---0-----------------------------|

Verse
e|-0---2-0-2---0---2-0---|
B|-2---3-2-3---3---3-3---|
G|-2---2-2-4---4---4-4---|
D|-2---0-2-4---4---4-4---|
A|-0-----0-2---0---0-0---|
E|-0-----0-2---0---0-0---|

Bridge to Chorus
e|-0---2---2-4-2---0---2---0----|
B|-0---2---2-4-2---0---2---0----|
G|-1---3---3-5-3---1---3---1----|
D|-2---4---4-6-4---2---4---2----|
A|-2---4---4-6-4---2---4---2----|
E|-0---2---2-4-2---0---2---0----|

Middle Bridge
e|-2---4---2---4---0---|
B|-3---5---3---5---0---|
G|-4---6---4---6---1---|
D|-4---6---4---6---2---|
A|-2---4---2---4---2---|
E|-2---4---2---4---0---|

------------------------------------------------------------------------
		BURNING HELL - REM
------------------------------------------------------------------------
Tabbed by: Barnaby Wilde
Email:

Intro/Verse
e|---------------------------------------------|
B|---------------------------------------------|
G|---------------------------------------------|
D|-2-2-2-2-2-2-2-2-2-2-2-2-2-2-2-2-2-2-2-2-2-2-|
A|-2-2-2-2-0-2-2-2-2-0-2-2-2-2-0-0-2-3-2-0-2-0-|
E|-0-0-3-0-0-0-0-3-0-0-0-0-3-0-0-------------0-|

Chorus
Guitar 1
e|---------------------------------|
B|---------------------------------|
G|---------------------------------|
D|-5-------4-------x---------------|
A|-3-------2-------7---------------|
E|-0-------0-------5---------------|

Guitar 2
e|--------------------------------------|
B|-555555554444444422-5-7-5----5-7-5----|
G|-555555554444444422-5----7-5-5----7-5-|
D|--------------------------------------|
A|--------------------------------------|
E|--------------------------------------|

Lead
e|-----------------------------------------------------------------|
B|--------------55555-55575-5---10-12-12--10-12-12--10-12-12-10-12-|
G|-575757575757-55797-57555-7>11--------11--------11---------------|
D|-----------------------------------------------------------------|
A|-----------------------------------------------------------------|
E|-----------------------------------------------------------------|

e|--------------------------------------------------12--------|
B|-12>13-13-13--13-13-11-13--13-13-13>15-15-15-13-15--15-13---|
G|------------12-----------12-----12-------------14--------14-|
D|------------------------------------------------------------|
A|------------------------------------------------------------|
E|------------------------------------------------------------|

Last Verse Fill Riff
e|-------------------------|
B|-------------------------|
G|-02020202020202020202-2b-|
D|-------------------------|
A|-------------------------|
E|-------------------------|


End (Chord Forms)
e|-------15-----------|
B|-15-13-15-15b---15--|
G|-14-14-14-------14--|
D|--------------------|
A|--------------------|
E|--------------------|

------------------------------------------------------------------------
		WHITE TORNADO - REM
------------------------------------------------------------------------
Tabbed by: Barnaby Wilde
Email:

Part 1
e|-------------------------------------|
B|-------------------------------------|
G|-5>7-5-5-7-5-5-7>9-7-7-9h-9-7-9-7-7--|
D|------7-----7--------------------9---|
A|-------------------------------------|
E|--------------------------------x2---|

Part 2
e|-----8--8--8-10b-10-10-8---------------------------|
B|-8-10-10-10-------------10-8-10b-8-8-10-8-10b-8----|
G|---------------------------------------------------|
D|---------------------------------------------------|
A|---------------------------------------------------|
E|---------------------------------------------x3----|

Part 3
e|-2---3---2---3---2---3---0---0-0-0-0---|
B|-3---4---3---4---3---4---2---2-2-0-2---|
G|-2---3---2---3---2---3---2---2-2-0-2---|
D|-0---0---0---0---0---0---2---2-2-0-2---|
A|-------------------------0---0-0-0-0---|
E|-------------------------0---0-0-0-0---|

Part 1 variation
e|--------------------------------|
B|--------------------887755------|
G|-5>7-5-5-7-5-5-7>9-7------7-5---|
D|------7-----7-------------------|
A|--------------------------------|
E|--------------------------------|

------------------------------------------------------------------------
		TOYS IN THE ATTIC - REM
------------------------------------------------------------------------
Tabbed by: Barnaby Wilde
Email:


Chorus/Intro
e|-22---22---22---00---33---|
B|-33---33---33---11---33---|
G|-22---22---22---00---00---|
D|-00---00---00---22---00---|
A|----------------33---22---|
E|----------------00---33---|

Verse Part 1
e|-3---3-2-0---0-3-1---0-3-0--------------------------|
B|-3---3-3-1---1-3-1---1-3-2--------------------------|
G|-0---0-2-0---0-0-2---0-0-2--------------------------|
D|-0---0-0-2---2-0-3---2-0-2-2-0-2-0-2-0-2-0-2-0-2-0--|
A|-2---2---3---3-2-1---3-2-0------------2-----------2-|
E|-3---3---0---0-3-1---0-3-0--------------------------|

Verse Part 2 (x4)
4th Time Go to G in Verse Part 1
e|-2-------------------|
B|-3---8-7-5-----------|
G|-2--------7-5-----5--|
D|-0-----------7-9-7---|
A|---------------------|
E|---------------------|

Slide Up To Chorus
e|----------------------|
B|----------------------|
G|----------------------|
D|-2-0-2-0-2-0----------|
A|------------000222333-|
E|----------------------|

Lead
e|------------------------------------6-6-9-6-4-6h-4-|
B|-66-4-66-4-66-4-66-4--------------8----------------|
G|--------------------88-6-88-6-88-6-----------------|
D|---------------------------------------------------|
A|---------------------------------------------------|
E|---------------------------------------------------|

e|-6b-4-6b-4-6b-4-6-4---------------------|
B|-------------------6-4-6-4--------------|
G|--------------------------6-4-----------|
D|-----------------------------3-4-5-6-7--|
A|-----------------------------1-2-3-4-5--|
E|----------------------------------------|

------------------------------------------------------------------------
		WINDOUT - REM
------------------------------------------------------------------------
Tabbed by: Barnaby Wilde
Email:
Intro
e|-----------7---0---7---0-|
B|----(10)---9---7---9---7-|
G|-----------9---7---9---7-|
D|-(7)-------9---0---9---0-|
A|-----------7---0---7---0-|
E|-----------7---0---7---0-|

Verse
e|-7----7-0---|
B|-9---10-7---|
G|-9----9-7---|
D|-9----9-0---|
A|-7----7-0---|
E|-7----7-0---|

Chorus
e|-0---3---|
B|-2---3---|
G|-2---0---|
D|-2---0---|
A|-0---2---|
E|-0---3---|

Middle Bridge
e|-------------|
B|--7-8-7------|
G|-9------x8---|
D|-------------|
A|-------------|
E|-------------|

End on E.

------------------------------------------------------------------------
		AGES OF YOU - REM
------------------------------------------------------------------------
Tabbed by: Barnaby Wilde
Email:

Intro/ Fill
e|--0-0-0-0----|
B|-2-0---0-----|
G|-----2-------|
D|-------------|
A|-------------|
E|-------------|

Verse
e|-0---0---------|
B|-2---0---------|
G|-2---1---------|
D|-2---2---Fill--|
A|-0---2---------|
E|-0---0---------|

Bridge to Chorus
e|-5---7------2---0--------|
B|-7---9------3---0--------|
G|-7---9------2---1--------|
D|-7---9------0---2---Fill-|
A|-5---7-x2-------2-x2-----|
E|-5---7----------0--------|

Chorus
e|-2---0-0---0-0----0-----|
B|-2---0-2---3-2----0-----|
G|-2---1-2---2-2----1-----|
D|-4---2-2---2-2----2-----|
A|-4---2-0---0-0-x3-2-Fill|
E|-2---0-0---0-0----0-----|

Middle Bridge
e|-0---2----0-----|
B|-0---2----0-----|
G|-1---2----1-----|
D|-2---4----2-----|
A|-2---4-x3-2-Fill|
E|-0---2----0-----|

Last Chord
e|-2---|
B|-2---|
G|-2---|
D|-----|
A|-----|
E|-----|

------------------------------------------------------------------------
		PALE BLUE EYES - REM
------------------------------------------------------------------------
Tabbed by: Barnaby Wilde
Email:

Intro and Picking Pattern
e|-1--1-----|
B|-1---1-1--|
G|-2-2--2---|
D|-3------3-|
A|----------|
E|----------|

Verse
e|-1---6---1---1---1---3---6---1---0---1-----------------|
B|-1---6---1---1---3---5---6---3---5---1---1-1-1-3h-1-1--|
G|-2---7---2---2---2---5---7---3---5---2-------------2---|
D|-3---8---3---3---0---5---8---3---5---3-----------------|
A|-------------------------------------------------------|
E|-------------------------------------------------------|

Chorus
e|-0--------1-1-|
B|-1--------3-1-|
G|-0-----0--3-2-|
D|-2-0-2h-2-3-3-|
A|-3------------|
E|-0------------|

Lead
e|-----8------------8---------6----------------------8----|
B|-3>10-10-11-10-8-8-10-10---6-6-6-8h-6-6-8-8-10-8-10-6---|
G|----------------10------3>7----------7------------------|
D|--------------------------------------------------------|
A|--------------------------------------------------------|
E|--------------------------------------------------------|

e|-----8------------1-----1----6--1------1----|
B|-8-10-10-8-10<-1-3-3---3----6----1----1-1---|
G|--------------2-----2>3--3>7--7---2-3h------|
D|-------------------------------3------------|
A|--------------------------------------------|
E|--------------------------------------------|

e|------------1---1--1------------|
B|-------------1-1-1--1-1-3h-1-1--|
G|---0---0---2--3---2--2------2---|
D|--3-3-2-2-3---------------------|
A|-1---3--------------------------|
E|--------------------------------|

End
e|-1---0---1--------1-|
B|-1---1---1--------1-|
G|-2---0---2-2-3-2--2-|
D|-3---2---3------3-3-|
A|-3---3---3--------3-|
E|-1---0---1--------1-|

------------------------------------------------------------------------
		ROTARY TEN - REM
------------------------------------------------------------------------
Tabbed by: Barnaby Wilde
Email:

Part 1
e|---5-7-7-7-8h0----------------------x2---|
B|--5-----------7-8-7-8h-7-4-5h-0----------|
G|-5-----------------------------0-2-0-----|
D|-5----------------------------------2----|
A|-------------------------------------1---|
E|--------------------------------------2--|

Part 2
e|---------------------------------------------------------|
B|---------------------------------------------------------|
G|---------------------------------------------------------|
D|-----------------2-------------------2-----------------2-|
A|----0-1-2---3-0-1---------0-1-2---3-0-----0-1-2---3-0-1--|
E|-0-2-----1-3------x2---0-2-----1-3-----0-0-----1-3-------|

Part 3
e|-x---x-7---3---10-10-12-10--0-0-0-5-0-0-0-5--------|
B|-5---5-5---5---10-10-12---11---0-----2-3-0-3-5-3-0-|
G|-5---5-5---5---11-11-13----------------------------|
D|-5---5-5---5---------------------------------------|
A|---------------------------------------------------|
E|---------------------------------------------------|

e|-------12--10--8-----------------------------------|
B|-0-0-0---10--12-10-12------------------------------|
G|-4-0-2---------------12-9-11-12-9-11-12-9-11-8-9-7-|
D|---------------------------------------------------|
A|---------------------------------------------------|
E|---------------------------------------------------|

e|-------------0-8-7-8h-7-5-5---|
B|------------8----------8--5---|
G|-9-7-9-7----7-------------5---|
D|--------9-7---------------5---|
A|------------------------------|
E|------------------------------|

------------------------------------------------------------------------
		BANDWAGON - REM
------------------------------------------------------------------------
Tabbed by: Barnaby Wilde
Email:

Verse
e|-0---0---1---1---0---1---1----|
B|-1---2---1---3---1---3---1----|
G|-0---0---2---3---2---3---2----|
D|-2---2---3---3---2---3---3----|
A|-3---0---3---1---0---1---3----|
E|-0---0---1---1---0---1---1----|

Verse Guitar 2
e|---8-10-12-9------8---6------6---8--8--8--8--8--|
B|-13-------------10---6---1--6---10-11-10-11-10--|
G|--------------10----7---2--7----10----------10--|
D|------------10-----8---2--8-----10----------10--|
A|------------------------------------------------|
E|------------------------------------------------|

Chorus (Picking Pattern)
e|--1--0---0-0---|
B|---1--1-3-3-3--|
G|-2--0----------|
D|---------------|
A|---------------|
E|---------------|

Chorus (Chords)
e|-1---0---0------|
B|-1---1---3------|
G|-2---0---0------|
D|-3---3---5------|
A|----------------|
E|----------------|

Middle Bridge
e|-3---0---0---2---3---0---0---2-1-3----|
B|-3---3---1---3---3---3---1---3-1-3----|
G|-0---0---0---2---0---0---0---2-2-4----|
D|-0---2---2---0---0---2---2---0-3-5----|
A|-2---2---0-------2---2---0-----3-5----|
E|-3---0---0-------3---0---0-----1-3----|

End on:
e|-0---|
B|-3---|
G|-0---|
D|-5---|
A|-0---|
E|-0---|

------------------------------------------------------------------------
		FEMME FATALE - REM
------------------------------------------------------------------------
Tabbed by: Barnaby Wilde
Email:

Verse
e|-0-0-3-0---0--3-0----0-0--0--0-1-1--1--1-1-1--1--1-3-3------3--|
B|-1--1---1---1----1---1--1--1---1--1--1---3--3--3---3--3------0-|
G|-0-------0---2----0--0---0--0--2---2--2--2---2--2--0---0-------|
D|-2--------3----------2---------3---------0---------0-----------|
A|-3---------------x8--3---------3-------------------2----0-2h---|
E|-0-------------------0---------1-------------------3-----------|

Chorus
e|-0---1------1-1--1--1-1--1--1-1-1--1---3-3---------|
B|-1---1------3--3--3----3--3---3--3--3--3--3--------|
G|-0---2------2---2--2----2--2--3---3--3-4-----------|
D|-2---3-x6---0-----------------3--------5---5----5--|
A|-3---3------------------------1--------5---------5-|
E|-0---1------------------------1--------3----3-5h---|

------------------------------------------------------------------------
		WALTER'S THEME - REM
------------------------------------------------------------------------
Tabbed by: Barnaby Wilde
Email:

Verse
e|--------------5-5-5>7-7----|
B|-----9--------0-0-0>0------|
G|------9-11-9--6-6-6>8--8---|
D|----9---------7-7-7>9---9--|
A|-6>7------x3---------------|
E|---------------------------|

Chorus
e|---------0-------0-0--|
B|-10-9-7-0-0-----0-0---|
G|-------9---8>9-9------|
D|----------------------|
A|----------------------|
E|----------------------|

------------------------------------------------------------------------
		KING OF THE ROAD - REM
------------------------------------------------------------------------
Tabbed by: Barnaby Wilde
Email:

Opening
e|---------------3---------------0---|
B|---------------3---------------1---|
G|---------------0---------------0---|
D|---------------0---------------2---|
A|---------------2---------------3---|
E|-0-1-1-2-2-3---3---0-1-1-2-2-3-0---|

e|--5-3--0---0---------0---|
B|-------1---1---------1---|
G|-5-3-0-0---0---------0---|
D|-------2---2-0-2-0-2-2---|
A|-------3---3---------3---|
E|-------0---0---------0---|

Verse
e|-0--------1---3-----------0-------------0---0--|
B|-1-1---1-------3-3-5h-3-3-1-------------1---1--|
G|-0---------------------4--0--0-0-2h-0-0-0---2--|
D|-2--0-2-2-----------------2-2-2------2--2---3--|
A|-3------3-----------------3-------------3---0--|
E|-0---------1>3------------0-------------0---0--|

e|-1-----------3----7-5--0----|
B|--1----------3---------1----|
G|---2-2>3-3>4-4---7-5-3-0----|
D|---3-3>4-4>5-----------2----|
A|---3-3>4-4>5-----------3----|
E|---1-1>2-2>3-----------0----|

Lead
e|-3-3---------1----1-----------------------------------|
B|-1-1-3b-1>----1-3h-1-3h-5-3<1-1-8b---------6-6---8-8--|
G|-------2-----------------5------7b--------5-5-5>7-7---|
D|----------------------------------7<5-5-7h------------|
A|------------------------------------------------------|
E|------------------------------------------------------|

e|-------------------------------------------|
B|-8b---------6-6---8-8-8-8-----------8------|
G|-7b--------7-5-5>7-7-7-7-7-10-9-7--7-7b-5<-|
D|---7<5-5-7h----------------------10--------|
A|-------------------------------------------|
E|-------------------------------------------|

Key Change
e|-4---2---4---4---4---2---2-3-4-------|
B|-6---2---4---6---6---2---2-3-4-------|
G|-6---3---5---6---6---3---3-4-5-------|
D|-6---4---6---6---6---4---4-5-6-------|
A|-4---4---6---4---4---4---4-5-6-------|
E|-4---2---4---4---4---2---2-3-4-------|

e|----4-4---2-2----2--4--4-4--------|
B|----6-6---2--2-4h----6b--6-7-6-4--|
G|----6-6---3-------3>-----6--------|
D|----6-6---4--------------6--------|
A|--4-4-4---4--------------6--------|
E|-6--4-4---2--------------4--------|

e|-4---2-3-4-------------------------------2---------|
B|-6---2-3-4---6b-4-6b-4-------------------4-3b-5----|
G|-6---3-4-5------------6-4-6b-4-----------4-----3-5-|
D|-6---4-5-6--------------------6-4--------4---------|
A|-4---4-5-6-----------------------6-4-6b--2---------|
E|-4---2-3-4-----------------------------2-2---------|
comments
We did not receive enough feedback on this tab! Please rate:
print report bad tab
1 2 3 4 5
I want to post or [tab]
guest
You may want to rate the tab now too:
select rating
Please do not post tabs as comments. Select "correction" instead!