Oops, an error
Loading. Please wait.

Eponymous Tab

by Rem
3,005 views 6 this week
no commentswrite comment
1 2 3 4 5
excellent!
x 1
add to favorites launch autoscroll
font size
0
reset
Autoscroll
+/-
esc
set tempo
stop
Contributor
Difficulty
novice
WARNING: You are trying to view
                                    content from Ultimate-Guitar.com
                                    in an unauthorized application,
                                    which is prohibited.

                                    Please use an official Ultimate
                                    Guitar Tabs application for iPhone,
                                    iPad or Android to access legitimate
                                    chords, guitar, bass, and drum tabs
                                    from Ultimate-Guitar.com database.

                                    Type "ultimate guitar tabs" in Apple
                                    App Store's or Android Market's
                                    search to find the application.
EPONYMOUS
1. Radio Free Europe
2. Gardening At Night
3. Talk About The Passion
4. So. Central Rain (I'm Sorry)
5. (Don't Go Back To) Rockville
6. Can't Get There From Here
7. Driver 8
8. Romance
9. Fall On Me
10. The One I Love
11. Finest Worksong
12. It's The End Of The World As We Know It (And I Feel Fine)

RADIO FREE EUROPE


For the "Raving station/Straight off the boat" part:

e ----0--0--0-0--0--0-0--0--0-0--0--0-0-0-0-0---|
B -----0--0----0--0----0--0----0--0--0-0-0-0-0--|
G ---3--3--3-3--3--3-2--2--2-2--2--2------------|

        For the "Beside yourself.." part:

e --0--0--0-0--0--0------4--------|
B ---4--4----4--4---5-5-5-5-5-----|
G -4--4--4-4--4--4-6-6-6---6-6----|

(play 2x)

A                             D   E
Beside yourself if radio's gonna stay.
A                          D   E
Reason: it could polish up the grey.
A                               D     E
Put that, put that, put that up your wall
A                       D   E
That this isn't country at all

F#    A      (EEAE)    F#    A         B
Raving station,       beside yourself

{same as verse above}
Keep me out of country in the word
Deal the porch is leading us absurd.
Push that, push that, push that to the hull
That this isn't nothing at all.

Straight off the boat, where to go?

E           A          E              A
Calling on in transit, calling on in transit
E     A                E       A
Radio Free Europe

Beside defying media too fast
Instead of pushing palaces to fall
Put that, put that, put that before all
That this isn't fortunate at all

Raving station, beside yourself
Calling on in transit, calling on in transit
Radio Free Europe, radio.

Bsus4   C#                  Bsus4            C#
Decide yourself, calling all of the medias too fast

Keep me out of country in the word
Disappoint is into us absurd

Straight off the boat, where to go?
Calling on in transit, calling on in transit
Radio Free Europe
---------------------------------------------
 Tuning:  EADGBD

Chords:   D  xx0230             C  x32010               G  320000
         Em  022000           F#m  244222              A7  (use riff)

A7 riff:   (listen to the song for exact rhythm)
D---0-0-0-0-0-0-0-0--|
B---3-3-3-3-2-2-0-2--|
G---0-0-0-0-0-0-0-0--|
D---2-2-2-2-2-2-2-2--|


{Intro:}

(G) ---2---2-4-2---2---2-4-2---|    repeat
(D) -0---0-------0---0---------|

{then}:

(D)--5-5-4-4-2-2-0-0-0-0-0-0-0-0-0-0--|
(B)--3-3-3-3-3-3-3-3-1-1-1-1-1-1-1-1--|
(G)--0-0-0-0-0-0-0-0-0-0-0-0-0-0-0-0--|    (x 4)
(D)--0-0-0-0-0-0-0-0-2-2-2-2-2-2-2-2--|
(A)--?-?-?-?-?-?-?-?-3-3-3-3-3-3-3-3--|


D                       C
I see your money on the floor, I felt the pocket change.
       G                                        A7
Though all the feelings that broke through that door
                           D
just didn't seem to be too real.

D                         C
The yard is nothing but a fence, the sun just hurts my eyes.
        G                         A7                                   D
Somewhere it must be time for penitence.  Gardening at night is never where.


G    A       D       G    A       D       G    A       D
Gardening at night.  Gardening at night.  Gardening at night.


Em                          F#m
The neighbors go to bed at ten.
Em                            F#m
Call the prayer line for a change.
Em                             F#m
The charge is changing every month.
Em                          D A     D
They said it couldn't be arranged.
D                        C                                G
We ankled up the garbage sound, but they were busy in the rows.
                           A7                                  D
We fell up, not to see the sun, gardening at night just didn't grow.


D                       C
I see your money on the floor, I felt the pocket change.
       G                                        A7
Though all the feelings that broke through that door
                           D
just didn't seem to be too real.
  G   A         D      G    A        D     G     A        D
Gardening at night.  Gardening at night.  Gardening at night.


Em                               F#m
Your sister said that you're too young.
Em                                  F#m
They should know they've been there twice.
Em                   F#m
The call was two and fifty-one.
Em                          D A     D
They said it couldn't be arranged.


D                       C
I see your money on the floor, I felt the pocket change.
       G                                        A7
Though all the feelings that broke through that door
                           D
just didn't seem to be too real.
D                        C                                G
We ankled up the garbage sound, but they were busy in the rows.
                           A7                                  D
We fell up, not to see the sun, gardening at night just didn't grow.

  G   A         D      G    A        D     G     A        D
Gardening at night.  Gardening at night.  Gardening at night.


Outro:

(D)  -5-5-4-4-2-2-0-0-0-0-0-0-0-0-0-0----|
(B)--3-3-3-3-3-3-3-3-1-1-1-1-1-1-1-1-----|
(G)--0-0-0-0-0-0-0-0-0-0-0-0-0-0-0-0-----|    (x 4)
(D)--0-0-0-0-0-0-0-0-2-2-2-2-2-2-2-2-----|
(A) --?-?-?-?-?-?-?-?-3-3-3-3-3-3-3-3----|

-------------------------------------------------------

TALK ABOUT THE PASSION

Original tab by:  ?
Corrections by:  George Belkin  (gxb101@psu.edu)


{Main riff:}
E------------------------------------------------------|
B-----------------------------3-------------3-2-0------|
G-2-2-------2-2-------------0---0---------0-------2----|   (repeat)
D-0-0-0-2-4-0-0-0-2-4-0---2-------2-----2--------------|
A-----------------------3-----------3-0----------------|
E------------------------------------------------------|


{Verse riff #1:}
E-0-0-0-0-0-0--0-0-0-0-0-0---3-3-3-2-0-0-0-0---------------------------|
B-2-2-0-2-2-0--2-2-0-2-2-0---0-0-0-0-0-0-3-3---------------------------|
G-2-2-2-2-2-2--2-2-2-2-2-2---0-0-0-0-0-0-0-0---------------------------|
D-2-2-2-2-2-2--2-2-2-2-2-2---2-2-2-2-2-2-2-2---------------------------|
A-0-0-0-0-0-0--0-0-0-0-0-0---2-2-2-2-2-2-2-2---------------------------|
E----------------------------0-0-0-0-0-0-0-0---------------------------|
This is like A, Asus, and a variation on E-minor


{Verse riff #2:}
E-------0-------------0-------------0-------------0-0-0----------------|
B-----3---3---3-----3---3---3-----3---3---3-----3---3-3----------------|
G---2-------------0-------------2-------------0-----0-0----------------|
D-3---------3---2---------2---3---------3---2-------2-2----------------|
A----------------------------------------------------------------------|
E----------------------------------------------------------------------|


{Bridge riff:}
E-2-2-3-5--2-2-3-5--3-3-3-2-2-2-2-2-------2-0--------------------------|
B-3-3-3-3--3-3-3-3--3-3-3-3-3-3-3-3-----3------------------------------|
G-2-2-2-2--2-2-2-2--2-2-2-2-2-2-2-2-0-2--------------------------------|
D-0-0-0-0--0-0-0-0--0-0-0-0-0-0-0-0------------------------------------|
A----------------------------------------------------------------------|
E----------------------------------------------------------------------|
The fourth verse begins the same way as the other three and fades out
repeating the A / Em stuff.


---

Intro:  {main riff}


{Main riff}
Empty prayer, empty mouths, combien reaction
Empty prayer, empty mouths, talk about the passion
Not everyone can carry the weight of the world
Not everyone can carry the weight of the world


{Verse riff #1}
Talk about the passion
Talk about the passion


{Main riff}
Empty prayer, empty mouths, combien reaction
Empty prayer, empty mouths, talk about the passion
{Verse riff #2:}
Combien, combien, combien de temps?


{Verse riff #1}
Talk about the passion
Talk about the passion


{Bridge riff}


{Main riff}
Not everyone can carry the weight of the world
Not everyone can carry the weight of the world
{Verse riff #2:}
Combien, combien, combien de temps?


{Verse riff #1}
Talk about the passion
Talk about the passion
Talk about the passion
Talk about the passion
Talk about the passion
Talk about the passion
----------------------------------------------
So. Central Rain (I'm Sorry)

Intro:

E--------------------------------------------------------0-------0----------|
B----------------3-------3-----------------------3-----------3-----3---3----|
G--------------2-----2-------2-----------------2-----2---------2-----2------|
D------2-3-0-----------0-------0-2-----2-3-0-----------0--------------------|
A--3-3-----------------------------3-3--------------------------------------|
E---------------------------------------------------------------------------|


C             Em   Gm       F
Did you never call? I waited for your call.
      C            Cm    Bb      C               Am G
These rivers of suggestion are driving me away.
C             Em   Gm          F
The trees will bend, the cities wash away
C               Cm     Bb        C
The city on the river there is a girl without a dream.

C    Dsus2
     I'm sorry.
C    Dsus2
     I'm sorry.
C    Dsus2
     I'm sorry.
C    Dsus2
     I'm sorry.

C

C                          Em               Gm
Eastern to Mountain, third party call, the lines are down
     F                 C              Cm
The wise man built his words upon the rocks
     Bb       C                    Am G
But I'm not bound to follow suit.
C                  Em  Gm          F
  The trees will bend, the conversation's dimmed.
     C               Cm       Bb     C
Go build yourself another home, this choice isn't mine.

C    Dsus2
     I'm sorry.
C    Dsus2
     I'm sorry.
C    Dsus2
     I'm sorry.
C    Dsus2
     I'm sorry.

Am      Dsus2
Am      Dsus2
Am      Dsus2

G

C

C             Em   Gm       F
Did you never call? I waited for your call.
      C            Cm    Bb      C               Am G
These rivers of suggestion are driving me away.
C            Em  Gm          F
  The ocean sang, the conversation's dimmed.
     C               Cm       Bb     C
Go build yourself another dream, this choice isn't mine.

C    D
     I'm sorry.
C    D
     I'm sorry.
C    D
     I'm sorry.
C    D
     I'm sorry.

Am      Dsus2
Am      Dsus2
Am      Dsus2
Am      Dsus2

Am
--------------------------------------------------------
(DON'T GO BACK TO) ROCKVILLE  (Version 1)

 {intro : E / / /  E / / / E / /  /  Esus4 E EaddF# E}

  E                                                                 A/Asus4
 Looking at your watch a third time waiting in the station for a bus
  E                                                                 A/Asus4
 Going to a place that's far, so far away and if that's not enough
  B             A     G#m  C#m                              Bm        A/Asus4
 Going where nobody says hello, they don't talk to anybody they don't know

         E                                                                  A
 You'll wind up in some factory that's full time filth and nowhere left to go
  E                                                   A/Asus4
 Walk home to an empty house, sit around all by yourself
     B                       A      G#m   C#m
 I know it might sound strange, but I believe
                           Bm       A/Asus4   A A/G#bass   A/F#bass
 You'll be coming back before too long

  E                F#m    B
 Don't go back to Rockville
  A                                      (B)  3-2-0---0-2--3-2-0--0-|
 And waste another year     riff:        (G)  ------2------------2--|

{same as above}
At night I drink myself to sleep and pretend
I don't care if you're not here with me
'Cause it's so much easier to handle
All my problems if I'm too far out to sea
But something better happen soon
Or it's gonna be too late to bring you back

  E                           D    B     A  B
 It's not as though I really need you
  E                           F#m  B     A  B
 If you were here I'd only bleed you
  F#m      C#m          F#m         C#m               A
 But everybody else in town only wants to bring you down and
                             B
 That's not how it ought to be

{same as before}
I know it might sound strange, but I believe
You'll be coming back before too long


Riff that comes in during the later verses of "Rockville":

E

(E)------0------5----4--2--0----|
(B)-----------------------------|
(G)-----------------------------|  play twice
(D)--2--------------------------|
(A)-----------------------------|
(E)-----------------------------|

A(sus4)

(E)------5-----7-----9----7----5-------|
(B)------------------------------------|
(G)---/6---6/7---7/9---\7---\6---------|  play twice
(D)------------------------------------|
(A)------------------------------------|
(E)------------------------------------|

--------------------------------------------------------------

CAN'T GET THERE FROM HERE

Intro:

(E)----------------1212--12-1212--|
(B)-------------------------------|
(G)-----------------9-9---9--9-9--|
(D)-------------------------------|
(A)--2--0-------------------------|
(E)--------3--0-------------------|


Bm7  Bm  C#m        B
When the world is a monster
Bm7 Bm   C#m        B
Bad to swallow you whole
E                            B     G# (open B and E strings)
Kick the clay that holds the teeth in
G6                        F# (open B and E strings)
Throw your trolls out the door

Bm7 Bm   C#m         B
If you're needing inspiration
Bm7   C#m             B     B7
Philomath is where I go by dawn
E                        B   G#
Lawyer Jeff he knows the lowdown
G6                        F#
He's mighty bad to visit home

E         A        F#      B
I've been there I know the way
                  Can't get there from here
I've been there I know the way
                  Can't get there from here
I've been there I know the way
                  Can't get there from here
I've been there I know the way
                         .......F#

{same as other verse}
When your hands are feeling empty
Stick head jumpin off the ground, 'round
Tris is sure to shirr the deers out
Brother Ray can sing my song

I've been there I know the way
                  Can't get there from here
I've been there I know the way
                  Can't get there from here
I've been there I know the way
                  Can't get there from here
I've been there I know the way

B            D                  A   B
Hands down, Calechee bound
B           D                  A   B
Landlocked kiss the ground
Dirt of seven continents going round and round
Go on ahead Mr. Citywide hypnotized, suit and tied
Gentlemen, testify
                      .....F#

{same as before}
If your world is a monster
Bad to swallow you whole
Philomath they know the lowdown
Throw your trolls out the door

I've been there I know the way
                  Can't get there from here
I've been there I know the way
                  Can't get there from here
I've been there I know the way
                  Can't get there from here
I've been there I know the way

Thank you, Ray.


{ending}   E  E E7 E7 E7
--------------------------------------------


DRIVER 8


riff:   (G) -------------------4---0---0---0---0---0---|
        (D) ---------------s-5----5---5--4---2---0-----|
        (A) --------2-0-2-3----------------------------|
        (E) 0-0-2-3------------------------------------|  repeat....

 Em            Am       G        G/F#
The walls are built up, stone by stone,
 Em            Am          G     G/F#
The fields divided one by one.
 Em                      Am
And the train conductor says
       G            G/F#      Em       Am
"Take a break driver 8, driver 8 take a break
            G                 G/F#
We've been on this shift too long".

 D         C                D
And the train conductor says
       C            D        C           D
"Take a break Driver 8, Driver 8 take a break
       C              Em     Em/F#     Em/G    Em/F#     Em Em/F# Em/G Em/F#
We can reach our destination, but we're still a ways away"

{on that part, play the Em Em/F# Em/G Em chords, or this riff}:

(D)------0-------0------0--------0--|
(A) ---2-------2------2-------2-----|
(E) -0-------2------3------2--------|

I saw a treehouse on the outskirts of the farm.
The power lines have floaters so the airplanes won't get snagged.
Bells are ringing through the town again,
Children look up, all they hear is sky-blue, bells ringing

And the train conductor says
"Take a break Driver 8, Driver 8 take a break
We can reach our destination, but we're still a ways away"

 Am                    C
Way to seal the hated heat.
 G                     D
Way to put myself to sleep.
 Am                    C
Way to shield the hated heat.
 G                      D/Dsus4
Way to put myself, my children to sleep.

He piloted this song in a plane like that one.
She is selling faith on the Go Tell crusade.
Locomotive 8, Southern Crescent, hear the bells ring again.
Field to weed is lookin' thin

And the train conductor says
"Take a break Driver 8, Driver 8 take a break
We've been on this shift too long."
And the train conductor says
"Take a break Driver 8, Driver 8 take a break
We can reach our destination, but we're still a ways away"
----------------------------------------------------------

ROMANCE


Tab by : Trygve Sandven Haland


Intro riff:

e----0---------0-----0-----|
B--4---4---0-----5-----5---|
G--------4---2-----4-----4-|
D--------------------------|


A       C#m     E
         Nations fall
A       C#m     E
par-       parallels
A       C#m     E
       Neighbors call
A              C#m             E
All in  all and all in all in  all


G                  D
That's worth      saving of the four
G                  D
Put our heads down on the dash
G                  D
Also need and erase for rest
G
Easy come, easy go

[opening riff]
Easy come, easy go
Easy come, easy go


A          C#m   E
     Sears give seal,
A       C#m     E
par-       parallels
A       C#m     E
       Neighbors call
A              C#m             E
All in  all and all in all in  all


G                  D
That's worth      saving of the four
G                  D
Put our heads down on the dash
G                  D
Also need and erase for rest
G
Easy come, easy go

[opening riff]
Easy come, easy go
Easy come, easy go


D                      A
If Vince is yours then call the shot
D            A
Keep it in a parking lot
     D     A      D    A
With one romance, one romance
[Intro riff]
Easy come, easy go
Easy come, easy go


A       C#m     E
       Neighbors call
A       C#m     E
par-       parallels
A             C#m     E
Day and night nations fall
A              C#m             E
All in  all and all in all in  all


G                  D
That's worth      saving of the four
G                  D
Put our heads down on the dash
G                  D
Also need and erase for rest
G
Easy come, easy go

[opening riff]
Easy come, easy go
Easy come, easy go


[end on E]
----------------------------------------

FALL ON ME

Corrections by:  Mike Allard (allard@rose-hulman.edu)

NOTE:  On the chorus, it sounds good to walk up to the C chord like this:
(A) ---0-2--| C chord
(E) -3------|

---

INTRO:       two guitars
one:
 (E)------3p0----5p3---------3p0----5p3----------3p0---------|
 (B)-----------------0-------------------0-------------3h5---|
 (G)-4h5------5---------4h5------5----------4h5--------------|
           guitar 2 starts here   *

two:        (slow strum of C chord, let ring)
 (E)-0--------------------|
 (B)-1h3--1-0-------------|
 (G)-0---------0----------|
 (D)-2---------------0h2--|
 (A)-3------------3-------|

 Dm                Am
There's a problem, feathers iron
 Dm                Am
Bargain buildings, weights and pullies
 Dm                Am                Dm                  Am
Feathers hit the ground before the weight can leave the air
 Dm       G       C      Dm/F      Dm         C     G7
Buy the sky and sell the sky and tell the sky and tell the sky

{walk}    C   Dm     F    G
  Don't fall      on me (What is it up in the air for) (It's gonna fall)
        Fall      on me (If it's there for long) (It's gonna fall)
                                 F        G   F  Fmaj7
        Fall      on me (It's over it's over me) (It's gonna fall)

Dm                   Am
There's the progress we have found       (when the rain)
Dm            Am
A way to talk around the problem         (when the children reign)
Dm               Am
Building towered foresight               (keep your conscience in the dark)
Dm                Am
isn't anything at all                    (melt the statues in the park)
 Dm       G       C      Dm/F     Dm           C     G7
Buy the sky and sell the sky and bleed the sky and tell the sky

{walk}    C   Dm     F    G
  Don't fall      on me (What is it up in the air for) (It's gonna fall)
        Fall      on me (If it's there for long) (It's gonna fall)
                                 F        G   F  Fmaj7
        Fall      on me (It's over it's over me) (It's gonna fall)


 Am                F            Am
      Well I could keep it above
            G                  Am
But then it wouldn't be sky anymore
        F                            Dm                 G
So if I send it to you you've got to promise to keep it whole


 Dm      G       C       Dm/F     Dm         G      C      Dm/F
Buy the sky and sell the sky and lift your arms up to the sky
     Dm         C    G
And ask the sky and ask the sky


{walk}    C   Dm     F    G
  Don't fall      on me (What is it up in the air for) (It's gonna fall)
        Fall      on me (If it's there for long) (It's gonna fall)
                                 F        G   F  Fmaj7
        Fall      on me (It's over it's over me) (It's gonna fall)


{walk}    C   Dm     F    G
  Don't fall      on me (What is it up in the air for) (It's gonna fall)
        Fall      on me (If it's there for long) (It's gonna fall)
                                 F        G   F  Fmaj7
        Fall      on me (It's over it's over me) (It's gonna fall)

{walk}    C   Dm     F    G
  Don't fall      on me (What is it up in the air for) (It's gonna fall)
        Fall      on me (If it's there for long) (It's gonna fall)
                                 F        G   F  Fmaj7
        Fall      on me (It's over it's over me) (It's gonna fall)...

--------------------------------------------------------------
Intro (Guitar1, Guitar2) (play twice)
-------------------------------------

|-Drums-| (First Time Only)

Guitar1
  E5		    D5		      E5
  |		    |		      |
Guitar2
E-----------------|---0-------0-----|-----0---------0-|--------0------0-|
B-----------------|-----3-/5------0-|----------3------|-----0-----0-3---|
G-----------------|---------------4-|-----------------|--4--------------|
D---------------0-|-----------------|-----------------|-----------------|
A------------0----|-----------------|-----------------|-----------------|
E-0---0--2b-------|-----------------|-----------------|-----------------|


Verse 1 (Guitar1, Guitar2, Guitar3)
-----------------------------------
Guitar1
  E5 (Em7)	    (Dsus2)	      (Em7)
  |
Guitar2
E---0-----0------0|---0-----0------0|----0------0-----|-0------0----0---|
B-----3------3----|-----3------3----|-0-----0------3--|---0-0----0------|
G-4-----4------4--|-4-----4------4--|-----------------|-----------------|
D-----------------|-----------------|-----------------|-----------------|
A-----------------|-----------------|-----------------|-------------0h2-|
E-----------------|-----------------|-----------------|-----------------|

This one goes out   To the one I      Love

  (Em7)		    (Dsus2)	      (Em7)
E---0-----0------0|---0-----0------0|---0-----0-----0-|----0------0-----|
B-----3------3----|-----3------3----|-0---0------3----|-0-----0-------0-|
G-4-----4------4--|-4------------4--|-----------------|-----------------|
D-----------------|-----------------|-----------------|-----------------|
A-----------------|-----------------|-----------------|-----------------|
E-----------------|-----------------|-----------------|-----------------|

This one goes out   To the one I've   Left behind

(Bracketed Chords refer to Guitar3 - See Below)

Bridge 1 (Guitar1, Guitar2, Guitar3)
------------------------------------
Guitar1
  G		    Dsus4	      C
E-3--3--3---3--0-0|-3--3--3--3--0-00|-0-0---3------0--|-0---------------|
B-3--3--3---3--3-3|-3--3--3--3--3-33|-1-1-------------|-1----1-1--1--1--|
G-0---------------|-2---------------|-0---------------|-0----0-0--0--0--|
D-0---------------|-0---------------|-----------------|-2---------------|
A-----------------|-----------------|-----------------|-----------------|
E-----------------|-----------------|-----------------|-----------------|

A simple prop			      To occupy my time

Guitar1
  E5(Em7)	    (Dsus2)	      (Em7)
  |
Guitar2
E----0------0-----|----0------0-----|----0-------0----|-0-----0-----0---|
B-------0------3--|-------0------3--|-0-----0-------3-|----0-----0-----0|
G-4---------------|-4---------------|-----------------|-----------------|
D-----------------|-----------------|-----------------|-----------------|
A-----------------|-----------------|-----------------|-----------------|
E-----------------|-----------------|-----------------|-----------------|

This one goes out   To the one I      Love

(Bracketed Chords refer to Guitar3 - See Below)

Chorus 1 (Guitar1, Guitar2)(play twice)
---------------------------------------
Guitar1
  E5		    D5		      E5
  |		    |		      |
Guitar2							 *
E-----------------|---0-------0-----|-----0---------0-|--------0------0-|
B-----------------|-----3-/5------0-|----------3------|-----0-----0-3---|
G-----------------|---------------4-|-----------------|--4--------------|
D---------------0-|-----------------|-----------------|-----------------|
A------------0----|-----------------|-----------------|-----------------|
E-0---0--2b-------|-----------------|-----------------|-----------------|

  Fire

* This note only appears on the track in the right hand channel,
implying this
  part was probably double-tracked.

Verse 2 (Guitar1, Guitar2, Guitar3)
------------------------------------

Guitar1
  E5(Em7)	    (Dsus2)	      (Em7)
  |
Guitar2
E---------0------0|---0-----0------0|--0-------0------|-0------0----0---|
B------------3----|-----3------3----|-----0-------3---|---0-0----0------|
G--------------4--|-4-----4------4--|-----------------|-----------------|
D-----------------|-----------------|-----------------|-----------------|
A-Fades-In--------|-----------------|-----------------|-------------0h2-|
E-----------------|-----------------|-----------------|-----------------|

This one goes out   To the one I      Love

  (Em7)		    (Dsus2)	      (Em7)
E---0-----0------0|---0-----0------0|--0-------0------|-0------0----0---|
B-----3------3----|-----3------3----|-----0-------3---|---0-0----0----0-|
G-4-----4------4--|-4------------4--|-----------------|-----------------|
D-----------------|-----------------|-----------------|-----------------|
A-----------------|-----------------|-----------------|-----------------|
E-----------------|-----------------|-----------------|-----------------|

This one goes out   To the one I've   Left behind

Bridge 2 (Guitar1, Guitar2, Guitar3)
-------------------------------------

Guitar1
  G		    Dsus4	      C
E-3--3--3--3--0-0-|-3--3--3--3--0-0-|-0-----3------0--|-0---------------|
B-3--3--3--3--3-3-|-3--3--3--3--3-3-|-1---------------|-1----1-1--1--1--|
G-0---------------|-2---------------|-0---------------|-0----0-0--0--0--|
D-0---------------|-0---------------|-----------------|-2---------------|
A-----------------|-----------------|-----------------|-----------------|
E-----------------|-----------------|-----------------|-----------------|

A simple prop			      To occupy my time

Guitar1
  E5(Em7)	    (Dsus2)	      (Em7)
  |
Guitar2
E----0------0-----|----0------0-----|----0------0-----|-0-----0-----0---|
B-------0------3--|-------0------3--|-------0------3--|----0-----0-----0|
G-4---------------|-4---------------|-4---------------|-----------------|
D-----------------|-----------------|-----------------|-----------------|
A--Fades-In-------|-----------------|-----------------|-----------------|
E-----------------|-----------------|-----------------|-----------------|

This one goes out   To the one I      Love

Chorus 2 (Guitar1, Guitar2)(play twice)
---------------------------------------
  E5		    D5		      E5
  |		    |		      |
Guitar2							 *
E-----------------|---0-------0-----|-----0---------0-|--------0------0-|
B-----------------|-----3-/5------0-|----------3------|-----0-----0-3---|
G-----------------|---------------4-|-----------------|--4--------------|
D---------------0-|-----------------|-----------------|-----------------|
A------------0----|-----------------|-----------------|-----------------|
E-0---0--2b-------|-----------------|-----------------|-----------------|

 Fire

Guitar Solo (Guitar2)
---------------------

E-----------------|-----------------|-----------------|0----------------|
B-----3-----5--3--|-----3-----5--3--|-----3-----5--3--|3h5--3-----------|
G3/4-----4--------|3/4-----4--------|3/4-----4--------|-------4--2-0----|
D-----------------|-----------------|-----------------|--------------2-0|
A-----------------|-----------------|-----------------|-----------------|
E-----------------|-----------------|-----------------|-----------------|


E-----------------|-----------------|----------0------|-----------------|
B---------------3-|-----------------|-----------------|-----------------|
G----0---0--2/4---|-4--2-p0---------|-----0-----------|-----------------|
D-2----2----------|-----------2-p0--|-2---------------|---2-------------|
A-----------------|-----------------|-----------------|-----------------|
E-----------------|-----------------|--------------3b-|-----------------|


Verse 3 (Guitar1, Guitar2, Guitar3)
------------------------------------

Guitar1
  E5(Em7)	    (Dsus2)	      (Em7)
  |
Guitar2
E-----------------|---0-----0------0|----0------0-----|-0------0----0---|
B-This-Bar-is-----|-----3------3----|-0-----0------3--|---0-0----0------|
G-Overshadowed-by-|-4-----4------4--|-----------------|-----------------|
D-Guitar1---------|-----------------|-----------------|-----------------|
A-----------------|-----------------|-----------------|-------------0h2-|
E-----------------|-----------------|-----------------|-----------------|

This one goes out   To the one I      Love

  (Em7)		    (Dsus2)	      (Em7)
E---0-----0------0|----0----0------0|----0------0-----|-0-----0----0----|
B-----3------3----|------3-----3----|-0-----0------3--|---0-0---0----0--|
G-4-----4------4--|-4------------4--|-----------------|-----------------|
D-----------------|-----------------|-----------------|-----------------|
A-----------------|-----------------|-----------------|-----------------|
E-----------------|-----------------|-----------------|-----------------|

This one goes out   To the one I've   Left behind

Bridge 3 (Guitar1, Guitar2, Guitar3)
-------------------------------------

Guitar1
  G		    Dsus4	      C
E-3--3-3---3--0-0-|-3---3---3----0-0|-0-----3------0--|-0---------------|
B-3--3-3---3--3-3-|-3---3---3----3-3|-1---------------|-1--1-1--1-1--1-1|
G-0---------------|-2---------------|-0---------------|-0--0-0--0-0--0-0|
D-0---------------|-0---------------|-----------------|-2---------------|
A-----------------|-----------------|-----------------|-----------------|
E-----------------|-----------------|-----------------|-----------------|

 Another	    Prop	      Has occupied my	Time

Guitar1
  E5(Em7)	    (Dsus2)	      (Em7)
  |
Guitar2
E----0------0-----|----0------0-----|----0------0-----|-0-----0----0----|
B-------0------3--|-------0------3--|-0-----0------3--|----0-----0----0-|
G-4---------------|-4---------------|-----------------|-----------------|
D-----------------|-----------------|-----------------|-----------------|
A-----------------|-----------------|-----------------|-----------------|
E-----------------|-----------------|-----------------|-----------------|

This one goes out   To the one I      Love

Chorus 3 (Guitar1, Guitar2)(play 4 times)
-----------------------------------------
Guitar1
  E5		    D5		      E5
  |		    |		      |
Guitar2							 *
E-----------------|---0-------0-----|-----0---------0-|--------0------0-|
B-----------------|-----3-/5------0-|----------3------|-----0-----0-3---|
G-----------------|---------------4-|-----------------|--4--------------|
D---------------0-|-----------------|-----------------|-----------------|
A------------0----|-----------------|-----------------|-----------------|
E-0---0--2b-------|-----------------|-----------------|-----------------|

  Fire

Ending (Guitar2)
----------------

  E5		    D5		      NC		E5
E-----------------|-----------------|-----------------|-(rake)----------|
B-----------------|-----------------|-----------------|-----------------|
G-----------------|----2------------|-0---------------|-----------------|
D-----------------|-0--0------------|-1---------------|-2---------------|
A-2-----------0---|-----------------|-----------------|-2---------------|
E-0------2b-------|-----------------|-----------------|-0---------------|

'Ideal' Part for Guitar3 in Verses and Bridge
----------------------------------------------
  Em7		    Dsus2	      Em7
E-------0---------|--------0--------|------0----------|-0--0------0--00-|
B------------0----|-3-3---------3---|-----------3-----|-0-----0---0--00-|
G-----------------|-2-2-------------|-----------------|-----------------|
D-2-2-------------|-0-0-------------|-2-2-------------|-----------------|
A-2-2-------------|-----------------|-2-2-------------|-----------------|
E-0-0-------------|-----------------|-0-0-------------|-----------------|

This one goes out   To the one I      Love ....

Play these 4-bars twice over the verse sections, and one over the last
4-bars of the bridge. This part is only an 'idea', all occurances of
Guitar3 differ. Play notes on the high strings with up/down strokes, let
all notes ring.

TAB Key
--------

	b  - bend a semitone (1 fret)
	h  - hammer on
	p  - pulloff
	/  - slide up
	\  - slide down
        rake - exagerate the strumming of the chord
	      (but not enough for it to be an arpeggio)
-------------------------------------------------------------------

FINEST WORKSONG


Intro riff:

E-|-----------------------------|-------0---------0-0-x-0-0----|
B-|----0-0-0-0-0---0-0-0-0-0-0--|-0-0-0-0-0-----0-0-0-x-0-0----|
G-|-o--4-4-4-4-4---4-4-4-4-4-4--|-4-4-4-4-4-----4-4-0-x-0-0--o-|
D-|-o---------------------------|----------------------------o-|
A-|-----------------------------|------------------------------|
E-|-----------------------------|------------------------------|

Verse:

     Badd4
E-|--0-0-0-0-0------0-0-0-0-0-0-0--|------------|
B-|--0-0-0-0-0------0-0-0-0-0-0-0--|------------|
G-|--4-4-4-4-4------4-4-4-4-4-4-4--|------%-----|
D-|--4-4-4-4-4------4-4-4-4-4-4-4--|------------|
A-|--2-2-2-2-2------2-2-2-2-2-2-2--|------------|
E-|--------------------------------|------------|

{Use verse riff}
The time to rise has been engaged
You're better best to rearrange
I'm talking here to me alone
I listen to the finest worksong


E  F#
    Your finest hour
E  F#
    Your finest hour


{Intro riff}


{Use verse riff}
Another chance has been engaged
To throw Thoreau and rearrange
You are following this time
I beg you not beg to rhyme


E          F#
(blow your horn)   Your finest hour
E          F#
(blow your horn)   Your finest hour


{Intro riff}


{Use verse riff}
Take your instinct by the reins
Your better best to rearrange
What we want and what we need
Has been confused been confused


E          F#
(blow your song)   Your finest hour
E          F#
(blow your song)   Your finest hour


{Break:  A   single notes: A G F# G A}


{Use verse riff}
Take your instinct by the reins
Your better best to rearrange
What we want and what we need
Has been confused been confused


E          F#
(blow your song)   Your finest hour
E          F#
(blow your song)   Your finest hour
E          F#
(blow your song)   Your finest hour


{end with Em and various harmonics}
-----------------------------------------------------
IT'S THE END OF THE WORLD AS WE KNOW IT (AND I FEEL FINE)

(lyrics from official lyric sheet)


G                               Cmaj7
That's great, it starts with an earthquake,
                     G                         Cmaj7
birds and snakes, an aeroplane - Lenny Bruce is not afraid.
G
Eye of a hurricane, listen to yourself churn
Cmaj7
world serves its own needs, don't misserve your own needs.
G
Feed it up a knock, speed, grunt no, strength no.
Cmaj7
Ladder structure clatter with fear of height, down height.
Bb
Wire in a fire, represent the seven games
     Am
in a government for hire and a combat site.


G                                                              Cmaj7
Left her, wasn't coming in a hurry with the furies breathing down your neck.
G
Team by team reporters baffled, trump, tethered crop.
             Cmaj7
Look at that low plane!  Fine then.
G                                               Cmaj7
Uh oh, overflow, population, common group, but it'll do.

Save yourself, serve yourself.
                 G
World serves its own needs, listen to your heart bleed.
                 Cmaj7
Tell me with the rapture and the reverent in the right - right.
    Bb                                               Am
You vitriolic, patriotic, slam, fight, bright light, feeling pretty psyched.


         G         Dsus2    Am
It's the end of the world as we know it
         G         Dsus2     Am
It's the end of the world as we know it
         G         Dsus2     Am                         C
It's the end of the world as we know it and I feel fine


G
Six o'clock - TV hour.  Don't get caught in foreign tower.
      Cmaj7
Slash and burn, return, listen to yourself churn.
G
Lock him in uniform and book burning, blood letting.
      Cmaj7
Every motive escalate.  Automotive incinerate.
G
Light a candle, light a motive.  Step down, step down.
         Cmaj7
Watch a heel crush, crush.
                  G
Uh oh, this means no fear - cavalier.  Renegade and steer clear!
Cmaj7
   A tournament, a tournament, a tournament of lies.
Bb                                             Am
Offer me solutions, offer me alternatives and I decline.


         G         Dsus2    Am
It's the end of the world as we know it
         G         Dsus2     Am
It's the end of the world as we know it
         G         Dsus2     Am                         C   Cmaj7
It's the end of the world as we know it and I feel fine
G         Cmaj7     G    Cmaj7      G    F
    I feel fine

         G         Dsus2    Am
It's the end of the world as we know it
         G         Dsus2     Am
It's the end of the world as we know it
         G         Dsus2     Am                         C
It's the end of the world as we know it and I feel fine


G
The other night I tripped a nice continental drift divide.
      Cmaj7
Mount St. Edelite.  Leonard Bernstein.
G
Leonid Breshnev, Lenny Bruce and Lester Bangs.
Cmaj7
   Birthday party, cheesecake, jelly bean, boom!
    Bb                                    Am
You symbiotic, patriotic, slam, but neck, right?  Right.


         G         Dsus2    Am
It's the end of the world as we know it
         G         Dsus2     Am
It's the end of the world as we know it
         G         Dsus2     Am                         C
It's the end of the world as we know it and I feel fine


G


         G         Dsus2    Am
It's the end of the world as we know it
         G         Dsus2     Am
It's the end of the world as we know it
         G         Dsus2     Am                         C
It's the end of the world as we know it and I feel fine

         G         Dsus2    Am
It's the end of the world as we know it
         G         Dsus2     Am
It's the end of the world as we know it
         G         Dsus2     Am                         C
It's the end of the world as we know it and I feel fine

         G         Dsus2    Am
It's the end of the world as we know it
         G         Dsus2     Am
It's the end of the world as we know it
         G         Dsus2     Am                         C
It's the end of the world as we know it and I feel fine
comments
We did not receive enough feedback on this tab! Please rate:
1 2 3 4 5
I want to post or [tab]
guest
You may want to rate the tab now too:
select rating
Please do not post tabs as comments. Select "correction" instead!