Oops, an error
Loading. Please wait.

Fables Of The Reconstruction Tab

by Rem
ver2
ver2

Album

More versions @911Tabs.com
1,165 views 1 this week
no commentswrite comment
1 2 3 4 5
please rate
add to favorites launch autoscroll
font size
0
reset
Autoscroll
+/-
esc
set tempo
stop
Contributor
WARNING: You are trying to view
                                    content from Ultimate-Guitar.com
                                    in an unauthorized application,
                                    which is prohibited.

                                    Please use an official Ultimate
                                    Guitar Tabs application for iPhone,
                                    iPad or Android to access legitimate
                                    chords, guitar, bass, and drum tabs
                                    from Ultimate-Guitar.com database.

                                    Type "ultimate guitar tabs" in Apple
                                    App Store's or Android Market's
                                    search to find the application.
------------------------------------------------------------------------
		Feeling Gravitys Pull - REM
------------------------------------------------------------------------
Tabbed by: Barnaby Wilde
Email:

Intro/Verse
e|-7---7-----0----------(7)---------(5)------|
B|--7-6-7-6-0-0---------(7)---------(5)------|
G|----------------------(7)---------(5)------|
D|--------------x-x-x-x-(7)-x-x-x-x-(5)------|
A|--------------x-x-x-x-(7)-x-x-x-x-(5)------|
E|--------------7-x-x-7-(7)-7-x-x-7-(5)------|

e|-7---7-----0----------(7)---------(12)------|
B|--7-6-7-6-0-0---------(7)---------(12)------|
G|----------------------(7)---------(12)------|
D|--------------x-x-x-x-(7)-x-x-x-x-(12)------|
A|--------------x-x-x-x-(7)-x-x-x-x-(12)------|
E|--------------7-x-x-7-(7)-7-x-x-7-(12)------|

Variations:
In place of Harmonic 7:

e|-0--------|
B|-0--------|
G|-7--------|
D|-0--------|
A|----------|
E|----------|

In place of Harmonic 5 or 12:
e|-7--0--12----|
B|-8--0--12----|
G|-0--9--------|
D|-0--0--------|
A|-------------|
E|-------------|

Chorus: 
e|----------------------|
B|---0---0---0---0------|
G|----0---0---0---0-----|
D|--2---2---2---4-------|
A|----------------------|
E|-0---2---3---5--------|




Bridge to Verse and End: (x3)
e|-0-0--0--0--0--0--0-0-0-----0---0------0-----|
B|-1--1--1--3--3--3---1--1-1>3-0-3-3------0----|
G|-0---0--0-2---2--2--0---0------2--2-2>4------|
D|-2------------------2------------------------|
A|-3------------------3------------------------|
E|-0------------------0------------------------|


e|-0--------(12)----|
B|-3--------(12)----|
G|-4---OR---(12)----|
D|-0--------(12)----|
A|----------(12)----|
E|----------(12)----|

Outro: x2

e|--0--0--0--0--0----0------|
B|-13-15-13-15-12---13h-----|
G|-12-12-12-12--x----x------|
D|-14-14-14-14-14---14------|
A|--------------------------|
E|--------------------------|

e|--0--0--0--0-15-15-15-----|
B|-13-15-13-15-13-13-13-----|
G|-12-12-12-12-12-12-12-----|
D|-14-14-14-14-14-12-12-----|
A|--------------------------|
E|--------------------------|


e|-2-----0-0------------|
B|-3-----5>7------------|
G|-4-----7>9---FEEDBACK-|
D|-0-----7>9------------|
A|----------------------|
E|----------------------|

End orchestration on guitar:
e|-0-0-0-0-0---------------|
B|-7-0-0-0-7-------0-------|
G|-9-7-8-9-9-x3----7-------|
D|-9-9-9-9-9-------9-------|
A|-------------------------|
E|-------------------------|










------------------------------------------------------------------------
		Maps and Legends - REM
------------------------------------------------------------------------
Tabbed by: Barnaby Wilde
Email:


e|-----------|
B|-----------|
G|-----------|
D|----0------|
A|-0-2-------|
E|-----------|

Intro/ Chorus
e|-0---0---0------------|
B|-0---3---0------------|
G|-0---2---0---4-2-0----|
D|-2---0---2------------|
A|-2-------2------------|
E|-0-------0------------|

Verse:
e|---0---0---0---0---0--0---2---0----|
B|---------------------------0-2-0---|
G|--7-0-0-0-7-0-0-0-7-0-0--4---2-----|
D|-7---2---7---2---7---2--4----2-----|
A|-----------------------------------|
E|-----------------------------------|

Bridge to Chorus:
e|-----------0----0--0-0------0---|
B|-2-2-2-2-3h-2-3h---3-3-2-3h-0---|
G|-2-2-2-------------2-2------0---|
D|-2-2-2-------------2-2----------|
A|--------------------------------|
E|--------------------------------|

Middle Bridge:
D-Dm-F-C-D-Dm-F-D-Dm-F-C
e|---2----1---1---0---2----1---1---1--|
B|----3----3---1--1----3----3---1--1--|
G|-2---2-2--2---0-0--2--2-2--2---2-2--|
D|-0-----0--------2--0----0--------3--|
A|----------------3----------------3--|
E|----------------0----------------1--|

e|---2----1---1-x-x-0---|
B|----3----3--1-x-x-1---|
G|-2---2-2--2-2-2-0-0---|
D|-0-----0----3-3-0-2---|
A|------------3-3-0-3---|
E|------------1-0-0-0---|

End on Em.



------------------------------------------------------------------------
		DRIVER 8 - REM
------------------------------------------------------------------------
Tabbed by: Barnaby Wilde
Email:

Intro/ Bridge to last Verse
e|---------------------------------|
B|---------------------------------|
G|----------------------0--0-0-0-0-|
D|-2-------------4>5>9-------------|
A|-2------2-0-2-3-----10-10-9-7-0--|
E|-0-0-2-3-------------------------|

Verse
e|-0---0---3---3----|
B|-0---1---3---3----|
G|-0---2---0---0----|
D|-2---2---0---0----|
A|-2---0---2---0----|
E|-0---0---3---2----|

Chorus
e|-0-0--x-0--0-------|
B|-7-7--3--3---------|
G|-7-7--0---0--------|
D|-0-0--2------------|
A|------3------------|
E|------0------------|

Chorus/ Outro
e|--------------------------|
B|--------------------------|
G|--------------------------|
D|---0---0---0---0----------|
A|--2-2-2-2-2-2-2-2---------|
E|-0---2---3---2---0--------|

Middle Bridge
e|-0---0----0---0---0-------0-------3---2-2-3-3-2-----|
B|-1---1----1---1---1-------1-------3---3-3-3-3-3-----|
G|-2---2----2---0---0-----0-0-----0-0---2-2-2-2-2-----|
D|-2-0-2h-0-2h--0---2-0-2h--2-0-2h--0---0-0-0-0-0-----|
A|-0---0----0---0---3-------3-------2-----------------|
E|-0---0----0---0---0-------0-------3-----------------|

End on Em









------------------------------------------------------------------------
		LIFE AND HOW TO LIVE IT - REM
------------------------------------------------------------------------
Tabbed by: Barnaby Wilde
Email:

Easier Intro:
e|-0-0--2--0--0--0---2--3--5--5--5>7-0---|
B|-1--1--1--1--1------3--3--3--3-----1---|
G|-0---0--0--0--0------2--2--2--2----0---|
D|-2---------------------------------2---|
A|-3--------------3>5----------------3---|
E|-0---------------------------------0---|

Intro: (Buck version)
e|-3----------------3>5-------5--5--5--5>7-3----|
B|-5-5--7--5--5--5--5>7-7--8---------------5----|
G|-5--5--5--5--5--5-5>7--7--7--7--7--7-----5----|
D|-3----------------3>5--------------------3----|
A|-3---3--3--3--3---3>5---5--5--5--5--5----3----|
E|-3----------------3>5--------------------3----|

Verse Riff:
e|-3-3-3-3-3-3-3-3-3-3-3-3>5-5-5-5-5-5-5-5-5<3-----|
B|-7-7-7-5-5-3-5-5-3-5-5-3>5-7-7-7-5-5-5-5-5<3-----|
G|-5-5-5-5-5-5-5-5-5-5-5-5>7-7-7-7-7-7-7-7-7<5-----|
D|-3-3-3-3-3-3-3-3-3-3-3-3>5-5-5-5-5-7-7-7-7<3-----|
A|-3-3-3-3-3-3-3-3-3-3-3-3>5-5-5-5-5-5-5-5-5<3-----|
E|-3-3-3-3-3-3-3-3-3-3-3-3>5-5-5-5-5-5-5-5-5<3-----|


Chorus: x2
e|-3---0---3---0---5-------------|
B|-3---3---3---3---7-------------|
G|-0---0---0---0---7-------------|
D|-0---0---0---0---5-------------|
A|-2---3---2---3---5-------------|
E|-3---0---3---0---5-------------|

Post Chorus Bridge and End: x2
e|--8----8----8-3---5-------|
B|-10---11---10-5---7-------|
G|-10---10---10-5---7-------|
D|-10---10---10-5---7-------|
A|--8----8----8-3---5-------|
E|--8----8----8-3---5-------|

End on D


------------------------------------------------------------------------
		OLD MAN KENSEY - REM
------------------------------------------------------------------------
Tabbed by: Barnaby Wilde
Email:


Bass Intro:
e|------------------------------------------|
B|------------------------------------------|
G|------------------------------------------|
D|--------------2-3-4-----------------------|
A|-2-0-2-(2)-(2)-----2-0-2-(2)-(2)-(2)-(2)--|
E|--3-----------------3---------------------|

Intro:
e|------------------------0--------------------0-0-0-0---|
B|------------------------0--------------------0-0-0-0---|
G|------------------------4--------------------4-2-2-4h--|
D|---------------0--------2-----------0--------2---------|
A|-0-0-0-0-2h-0-2-4-2-0-2h--0-0-2h-0-2-4-2-0-2h----------|
E|-------------------------------------------------------|

Verse:
e|--------------|
B|---0--0-------|
G|----0---------|
D|--4----4------|
A|-2---0--------|
E|--------------|

Chorus: x3
e|----------------------------------|
B|----------0--------------0--0--0--|
G|----0------2-2>4---0------2--2----|
D|-2-4-4-0-2--2---2-4-4-0-2--2--2---|
A|----------------------------------|
E|----------------------------------|

e|---------0----|
B|---------0----|
G|----0----2----|
D|-2-4-4-0-2----|
A|--------------|
E|--------------|


Middle Bridge:
e|---------------------0----|
B|----0--0--0-------0---0---|
G|---3-3--3--3----1--1---1--|
D|--4---4--4--4--2----2-----|
A|-4------------2-----------|
E|--------------------------|










------------------------------------------------------------------------
		CANT GET THERE FROM HERE - REM
------------------------------------------------------------------------
Tabbed by: Barnaby Wilde
Email:

Intro:
e|----------77777--------------|
B|----------77777-77-7-99-9----|
G|----------77777-77-7-99-9----|
D|----------------77-7-99-9----|
A|-2-0-------------------------|
E|----3-0----------------------|

Verse:
e|-----------7-------------7---7------|
B|-77-7>99-9-7---77-7>99-9-7---7------|
G|-77-7>99-9-8---77-7>99-9-8---9------|
D|-77-7>99-9-9---77-7>99-9-9---9------|
A|-----------7-------------7---7------|
E|-----------7-------------7---7------|


e|-------------------0-0--0-0---0-0----------|
B|--------------------0-0--0-0---0-0---------|
G|-9---10---8---5---4----4-----3----3-3------|
D|-9---11---9---6---5----5-----4----4-4------|
A|-7---11---9---6---5----5-----4----4-4-2-0--|
E|------9---7---4---3----3-----2----2-2----3-|

Chorus: x3
e|-0---0---2-------|
B|-0---2---2-------|
G|-1---2---3-------|
D|-2---2---4-------|
A|-2---0---4-2-0---|
E|-0---0---2----3--|

e|-0---0---2---2----0-0--0-0--|
B|-0---2---2---4-----0-0--0-0-|
G|-1---2---3---4---8----8-----|
D|-2---2---4---4---9----9-----|
A|-2---0---4---2---9----9-----|
E|-0---0---2---2---7----7-----|


Middle Bridge:
e|-0---0>0---0>0<0---0----------------|
B|-0---0>0---0>0<0---0----------------|
G|-4---6>7---7>9<6---8----------------|
D|-4---6>7---7>9<7---9----------------|
A|-2---4>5---5>7<7---9----------------|
E|-0---0>0---0>0<5---7----------------|

End:
e|-0-0-0-0----------------------|
B|-0-0-0-3----------------------|
G|-1-1-1-1----------------------|
D|-2-2-0-0----------------------|
A|-2-2-2-2----------------------|
E|-0-0-0-0----------------------|

------------------------------------------------------------------------
		GREEN GROW THE RUSHES - REM
------------------------------------------------------------------------
Tabbed by: Barnaby Wilde
Email:

Intro/Chorus
e|--0------0--0--0------2-2--2--2-222222-------|
B|---2-3>5--3--3----x3--3--3--3---333333-------|
G|-2------4--4--4-------4---4--4--444444-------|
D|-0--------------------4---------444444-------|
A|----------------------2---------222222-------|
E|----------------------2---------222222-------|


Verse:
e|-2-2-2-3-2-3-3-3-------2-2-2-2-2-0-0------0---|
B|-3-3-3-3-3-3-3-3-------3-3-3-3-3-0--0------0--|
G|-2-2-2-2-2-0-0-0-------4-4-4-4-4-1---1-1>2----|
D|-0-0-0-0-0-0-0-0-----0-4-4-4-4-4-2------------|
A|-----------2-2-2-0-2h--2-2-2-0-2-2------------|
E|-----------3-3-3-------2-2-2-0-2-0------------|

Bridge:
e|----------------------------------------------------------------------|
B|----------------------------------------------------------------------|
G|-14-14-14-12-11-12-12-12-12-11-9-11-11-11-11-9-7-7-7-7-9h-7-4>7-7-7-0-|
D|--0--0--0--0--0--0--0--0--0--0-0--0--0--0--0-0-0-0-0-0-0--0-0-0-0-0-0-|
A|----------------------------------------------------------------------|
E|----------------------------------------------------------------------|

Outro:
e|--0--0--0--0--0--0--0--0--0--0--0--0--0--0------------------|
B|-10-10-10-10-10-10-10-10-10-10-10-10-10-10------------------|
G|-11-11-11-12-11-12-12-12-12-12-12-12-12-12------------------|
D|--0--0--0--0--0--0--0--0--0--0--0--0--0--0------------------|
A|------------------------------------------------------------|
E|------------------------------------------------------------|

e|--0--0--0--0--0--------------------|
B|-10-10-10-10-10--------------------|
G|-11-11-11-12-11-11-12h-11--11-11---|
D|--0--0--0--0--0----------12-----12-|
A|-----------------------------------|
E|-----------------------------------|

e|--0--0--0--0--0--0--0--0--0--0-0---------0--------------------|
B|-10-10-10-10-10-10-10-10-10-10-8-8--7----5-5-5-5-5-7h-5-5-----|
G|-11-11-11-12-11-12-12-12-12-11-9--9--9---6-------------7------|
D|--0--0--0--0--0--0--0--0--0--0-0---9--9--7--------------------|
A|--------------------------------------------------------------|
E|--------------------------------------------------------------|

End:
e|----------0-0-0-0-0-----2-2-2-3-2--|
B|--8--7----5-5-5-5-5-----3-3-3-3-3--|
G|---9--9---6-6-6-6-6-x3--2-2-2-0-2--|
D|----9--9--7-7-7-7-7-----0-0-0-0-0--|
A|------------------------------2----|
E|------------------------------3----|

------------------------------------------------------------------------
		KOHOUTEK - REM
------------------------------------------------------------------------
Tabbed by: Barnaby Wilde
Email:

Intro/Chorus:
e|-0-0---0-0-0-0-0-0---0-----3--------|
B|-0-0---0-0-0-0-0-0---3-----3--------|
G|-0-0---0-0-0-0-0-0---0-----0--------|
D|-0-2---2-0-2-0-2-0---5-x3--0--------|
A|-2-2---2-2-2-2-2-2---5-----2--------|
E|-0-0---0-0-0-0-0-0---0-----3--------|

Verse:
e|-0---0---0-----0-----0-----|
B|-3---3---3-----3-----0-----|
G|-0---2---0-----2-x3--0-----|
D|-2---0---2-4-2-0-----2-----|
A|---------------------2-----|
E|---------------------0-----|

Lead:
Start walkdown under end of chorus.
Repeat after bend 3 times.
e|--------------------------------------|
B|-10-8-7-8-7---------------8-7---------|
G|-------9---9-7-6-7b-7---7----9-6------|
D|-------------------7-7>9-9------------|
A|--------------------------------------|
E|--------------------------------------|


------------------------------------------------------------------------
		AUCTIONEER (ANOTHER ENGINE) - REM
------------------------------------------------------------------------
Tabbed by: Barnaby Wilde
Email:

Verse
e|-------------------------|
B|----3--------------------|
G|---4-4-------------------|
D|--4----14-14-14-12-11-0--|
A|-2------0--0--0--0--0-0--|
E|-------------------------|



Chorus
e|--0---0---------------------|
B|--0---0---------------------|
G|-10---9---------------------|
D|-10---9---------------------|
A|--x---x---------------------|
E|--8---7---------------------|

Bridge
e|-------------0-0-0-0-0-0-0-0-0-0--0--0--0--0---|
B|---------12--0-5-5-5-5-5-5-5-5-8-10-12/14-15---|
G|-12-12-14--------------------------------------|
D|-----------------------------------------------|
A|-----------------------------------------------|
E|-----------------------------------------------|

e|--0--0--0--0--0--0--0--0--|
B|-15-15-15-15-15-15-15-15--|
G|--------------------------|
D|--------------------------|
A|--------------------------|
E|--------------------------|

End
e|---------|
B|---------|
G|----4----|
D|---------|
A|-2-2-----|
E|--0------|


------------------------------------------------------------------------
		GOOD ADVICES - REM
------------------------------------------------------------------------
Tabbed by: Barnaby Wilde
Email:

Verse
e|-0---0---0----0--0--0-2--0--2-0--|
B|-0---0---0-----5--5----3--3------|
G|-9---7---6---6--6--6----4--4-----|
D|-9---7---7-----------------------|
A|-7---5---0-----------------------|
E|-0---0---0-----------------------|

Chorus
e|--0----0----0----0----5-5--5--5-0-0--0--0-0---0---0---0-|
B|---0----0-------------5--5--5---0--0--0---0---0---0---0-|
G|-2--2>4--4>6-6-7h-7-0-6---6--6--6---6--6--9---2---9---2-|
D|----------------------7---------7---------9---2---9---2-|
A|----------------------7---------7---------7---0---7---0-|
E|----------------------5---------0---------0---0---0---0-|



e|--0----0----0----0----5-5--5--5-0-0--0--0-5--|
B|---0----0-------------5--5--5---0--0--0---5--|
G|-2--2>4--4>6-6-7h-7-0-6---6--6--6---6--6--6--|
D|----------------------7---------7---------7--|
A|----------------------7---------7---------7--|
E|----------------------5---------0---------5--|

Bridge
"At the end of the day"
e|-0----|
B|-0----|
G|-4----|
D|-5----|
A|-5----|
E|-3----|

2nd Guitar
e|-0------------------------------------------|
B|-0-7-9-10-9-7----7-9-10-9-7---7-9-10-9-7----|
G|-9-----------9-7-----------9-6----------9---|
D|-9------------------------------------------|
A|-7------------------------------------------|
E|-0------------------------------------------|


------------------------------------------------------------------------
		WENDELL GEE - REM
------------------------------------------------------------------------
Tabbed by: Barnaby Wilde
Email:

Verse:
e|-0---1---3---1---0---3--------|
B|-1---3---3---3---3---3--------|
G|-0---2---0---2---0---0--------|
D|-2---0---0---0---2---0--------|
A|-3-------2-------2---2--------|
E|-0-------3-------0---3--------|

Chorus:
e|-1---0---0---1---0---3----------|
B|-1---1---0---1---1---3----------|
G|-2---0---0---2---0---0----------|
D|-3---2---2---3---2---0----------|
A|-3---3---2---3---3---2----------|
E|-1---0---0---1---0---3----------|

Banjo Tab:
Verse
d|-5---5---5---5---5---5----|
B|-5---3---3---3---3---3----|
G|-5---2---4---0---0---0----|
D|-5---0---5---3---2---0----|
G|--------------------------|

Chorus
d|-3---5---5------|
B|-1---5---3------|
G|-2---5---4------|
D|-3---5---5------|
G|----------------|



------------------------------------------------------------------------
		WHEN I WAS YOUNG (THROW THOSE TROLLS AWAY) - REM
------------------------------------------------------------------------
Tabbed by: Barnaby Wilde
Email:

Intro/Bridge:
e|--0--0-----0--0--0--0-------------------|
B|----------------------------------------|
G|---7--7-7>9-9--9--7--7-6-7-6--6666666---|
D|-0--0--0-----0--0-----0-----7-7777777---|
A|----------------------------------------|
E|----------------------------------------|

Verse:
e|--------------------------------------0--------|
B|--------------------------------------0--------|
G|--------------------------7-7-7-5-4-0-7-9-7----|
D|-5-7h-7-7-5-4-0-7-7-5-4-0-0-0-0-0-0-0-9----9---|
A|-0-0--0-0-0-0-0-0-0-0-0-0----------------------|
E|-----------------------------------------------|

Chorus
e|-0---0-0---0---0-0-------------|
B|-0---5-3---2---5-3-------------|
G|-1---4-2---2---4-2-------------|
D|-2---0-0---2---0-0-------------|
A|-2---------0-------------------|
E|-0---------0-------------------|
comments
We did not receive enough feedback on this tab! Please rate:
1 2 3 4 5
I want to post or [tab]
guest
You may want to rate the tab now too:
select rating
Please do not post tabs as comments. Select "correction" instead!