Oops, an error
Loading. Please wait.

Lifes Rich Pageant Tab

by Rem
1,704 views 3 this week
no commentswrite comment
1 2 3 4 5
excellent!
x 1
add to favorites launch autoscroll
font size
0
reset
Autoscroll
+/-
esc
set tempo
stop
Contributor
WARNING: You are trying to view
                                    content from Ultimate-Guitar.com
                                    in an unauthorized application,
                                    which is prohibited.

                                    Please use an official Ultimate
                                    Guitar Tabs application for iPhone,
                                    iPad or Android to access legitimate
                                    chords, guitar, bass, and drum tabs
                                    from Ultimate-Guitar.com database.

                                    Type "ultimate guitar tabs" in Apple
                                    App Store's or Android Market's
                                    search to find the application.
------------------------------------------------------------------------
		Begin The Begin - REM
------------------------------------------------------------------------
Tabbed by: Barnaby Wilde
Email:

Verse:
e|----------------2---2---2----|
B|----------------2---2---2----|
G|------0-2-0-----3---3---3----|
D|-0-2-4-----4-0--4---4---4----|
A|----------------4---4---4----|
E|----------------2---0---2----|

e|-2---5-5-5---0-0-0---2-----------------|
B|-2---5-5-5---0-0-0---2-----------------|
G|-3---6-6-6---1-1-1---3--------0-2-0----|
D|-4---7-7-7---2-2-2---4---0-2-4-----4-0-|
A|-4---7-7-7---2-0-2---4-----------------|
E|-2---5-0-5---0-0-0---2-----------------|

e|-2---5-5-5---0-0-0---2---0--|
B|-2---5-5-5---0-0-0---2---0--|
G|-3---6-6-6---1-1-1---3---3--|
D|-4---7-7-7---2-2-2---4---4--|
A|-4---7-7-7---2-0-2---4---4--|
E|-2---5-0-5---0-0-0---2---0--|

Chorus:
e|-2-------2----------------|
B|-3-------3----------------|
G|-2-------2---0-2-0--------|
D|-0-------0--------4-0-----|
A|----2-3-0-----------------|
E|--------------------------|

Middle Bridge:
Guitar 1
e|-1---3--------3--------3-------4------------------2-|
B|-1---3--------3--------3-------6------------------2-|
G|-2---4--------4--------4-------6------------------3-|
D|-3---5--------5--------5-------6------------------4-|
A|-3---5--------5--------5-------4------------------4-|
E|-1---3--------3--------3-------4------------------2-|

Guitar 2
e|---------------------------------------------------|
B|------3-5b-3---3-5b-3---3-5b-3---------------------|
G|-------4--------4--------4------4p-0-2p-0----------|
D|-----------------------------------------4p-0-2p-0-|
A|---------------------------------------------------|
E|---------------------------------------------------|


End:
Guitar 1
e|-1---3-------------1---3----------------1---3----1---3-|
B|-1---3-------------1---3----------------1---3----1---3-|
G|-2---4-------------2---4----------------2---4----2---4-|
D|-3---5-------------3---5----------------3---5----3---5-|
A|-3---5-------------3---5----------------3---5----3---5-|
E|-1---3-------------1---3----------------1---3----1---3-|

Guitar 2
e|----------------------------------------------(12)-----|
B|------5-3p-0-3-5b-3------757575757575757------(12)-----|
G|------------4---------------------------------(12)-----|
D|----------------------------------------------(12)-----|
A|----------------------------------------------(12)-----|
E|----------------------------------------------(12)-----|


------------------------------------------------------------------------
		These Days - REM
------------------------------------------------------------------------
Tabbed by: Barnaby Wilde
Email:

Intro
e|-0-0-0-0-0-0-0-0-0-0-0-0-0-0-5-3-0-----0----|
B|-5-5-5-5-5-0-0-0-0-0-5-5-5-5------3b-0-0----|
G|-4-4-4-4-4-4-4-4-4-4-4-4-4-4-----------1----|
D|-2-2-2-2-2-2-2-2-2-2-2-2-2-2-----------2----|
A|---------------------------------------2----|
E|---------------------------------------0----|

Verse
e|-0---0-0-0-0---0-0-0-3---3-3-3---3---3-3-3------|
B|-0---3-2-0-0---3-2-0-3---3-3-3-3-3---3-3-3-3----|
G|-1---2-2-0-1---2-2-0-4---5-4-5---4---5-4-5------|
D|-2-------0-2-------0----------------------------|
A|-2-------0-2-------0----------------------------|
E|-0-------0-0-------0----------------------------|

Guitar 2
e|------------------------------------------------|
B|--------------------------------3---------3-----|
G|---------------4>5-4-2-0---5-4-5-0---5-4-5------|
D|------------------------------------------------|
A|------------------------------------------------|
E|------------------------------------------------|

Bridge to Chorus
e|-2------|
B|-4------|
G|-4------|
D|-4------|
A|-2------|
E|-2------|


Chorus 
e|-0-0-3-2-0---0-3---0-0-3-2-0---0----|
B|-0-0-3-3-2---3-3---0-0-3-3-2---0----|
G|-1-3-0-2-2---2-0---1-3-0-2-2---2----|
D|-2-4-0-0-2---2-0---2-4-0-0-2---2----|
A|-2-4-2---0---0-2---2-4-2---0---0----|
E|-0-0-3---0---0-3---0-0-3---0---0----|

End of Chorus
e|-0-0-3----0-0--|
B|-0-0-3----2-0--|
G|-1-3-0----2-1--|
D|-2-4-0----2-2--|
A|-2-4-2----0-2--|
E|-0-0-3----0-0--|

Lead
e|---0--0--0---0---0--0-0--0--0---|
B|--0-0---0-0---0---0----0--0-----|
G|-4---7-6---12--11--9-7--9--9----|
D|--------------------------------|
A|--------------------------------|
E|--------------------------------|

Guitar 2 at end of lead
e|----12---12-------------------|
B|--12-------12-----------------|

End
e|-0-0-3----2-0-0-0--|
B|-0-0-3----3-2-3-0--|
G|-1-3-0----2-2-2-1--|
D|-2-4-0----0-0-0-2--|
A|-2-4-2----------2--|
E|-0-0-3----------0--|

------------------------------------------------------------------------
		Fall On Me - REM
------------------------------------------------------------------------
Tabbed by: Barnaby Wilde
Email:

Intro
Guitar 1
e|-----3-5-3------3-5-3-----------|
B|--------------------------------|
G|-4-5h-5---4-4-5h-5---4-4-5h-5---|
D|--------------------------------|
A|--------------------------------|
E|--------------------------------|
Guitar 2
e|---------------0----------------|
B|---------------1-3-1-0-1--------|
G|---------------0------0---------|
D|---------------2--------0-2h----|
A|---------------3----------------|
E|---------------0----------------|

Verse
Dm-Am
e|--1--1--0-0--0--0------|
B|---3--3----1--1--------|
G|----2--2----2--2-------|
D|-0-------2-------0-----|
A|-----------------------|
E|-----------------------|

Bridge to Chorus
F-G-C-Dm-F-C-G
e|--1----3-----0---1---1-1---0-0---3----|
B|---1----3-----1---3--1--1--1--1--3----|
G|----2>4--4-0---0---2-2---2-0---0-0----|
D|-3----------2---0----3-----2-----0----|
A|---------------------3-----3-----2----|
E|---------------------1-----2-----3----|

Chorus
Guitar 1 (Acoustic)
e|------0-0-1-1-1-1-3-3----|
B|------1-1-3-3-1-1-3-3----|
G|------0-0-2-2-2-2-4-4----|
D|------2-2-0-0-3-3-5-5----|
A|------3-3-----3-3-5-5----|
E|------0-0-----1-1-3-3----|

Guitar 2
e|-----------------------------------------------------------|
B|-----------------------------------------------------------|
G|-----------------------------------------------------------|
D|-------------3-3-5-5-3-0-------3-3-5-5-3-0-------3-3-5-5---|
A|--0-2-3-3-5-5-----------3-3-5-5-----------3-3-5-5----------|
E|-3---------------------------------------------------------|

End of Chorus
e|-1-1--1--0-0--0--0-------|
B|-1--1--1--1-1--1---------|
G|-2---2--2-2--2--2--------|
D|-3--------3--------------|
A|-3-----------------------|
E|-1-----------------------|

Guitar 2
e|--------------------------|
B|--------------------------|
G|------------0-2p-0--------|
D|-3-3-3-2-2-2--------------|
A|--------------------------|
E|--------------------------|

Middle Bridge
e|-0-0---1--1---0-0---0--0---0-0---1--1-----1-------3---|
B|-1--1--1---1--1--1--0---0--1--1--1---1----3-------3---|
G|-2---2-2----2-2---2-0----0-2---2-2-2------2-------0---|
D|-2-----3-3----2-----2-2----2-----3----3-2-0---2-3-0---|
A|-0-----3------0-----2------0-----3----------------2---|
E|-------1------------0------------1----------------3---|

End of Last Chorus Transition
e|-1--1-1-0-1h-0-0--------|
B|-1---1--------3-3-0-----|
G|-2-2--------------------|
D|-3----------------------|
A|-3----------------------|
E|-1----------------------|


------------------------------------------------------------------------
		Cuyahoga - REM
------------------------------------------------------------------------
Tabbed by: Barnaby Wilde
Email:


Bass Intro and Break
e|---------------------------------|
B|---------------------------------|
G|--2-2---7-7-7---4-4---7-7-7-7----|
D|-0-0-2-5-5---5<2-2-2>5---5-------|
A|---------------------------------|
E|---------------------------------|

Verse
e|-----------------3------------------3--|
B|----------------3------------------3---|
G|-4-4-4-2-2-------------------2-2-0-----|
D|----------4-2-0-----2-2-2-4-4---4------|
A|---------------------------------------|
E|---------------3------------------3----|

Bridge to Chorus
e|-0-0---0-0----2-2-0--|
B|-0-0---0-0----3------|
G|-0-0---0-0----4------|
D|-2-0---2-0----4------|
A|-2-2---2-2----2------|
E|-0-0---0-0----2------|

e|-0-0---0-0----2-2--|
B|-0-0---0-0----2--2-|
G|-0-0---0-0----2----|
D|-2-0---2-0---------|
A|-2-2---2-2---------|
E|-0-0---0-0---------|

e|-0-0---0-0----2-2-0--|
B|-0-0---0-0----3------|
G|-0-0---0-0----4------|
D|-2-0---2-0----4------|
A|-2-2---2-2----2------|
E|-0-0---0-0----2------|


e|-0-0---0-0----2-2---|
B|-0-0---0-0----3--3--|
G|-0-0---0-0----2-----|
D|-2-0---2-0----0-----|
A|-2-2---2-2----------|
E|-0-0---0-0----------|

Chorus
e|-2-0-3-2-2---0---0-0---|
B|-3-0-3-3-3---2---0-2---|
G|-2-0-0-4-2---2---0-2---|
D|-0-2-0-4-0---2---0-2---|
A|---2-2-2-----0---0-0---|
E|---0-3-2-----0---0-0---|

e|-2-0-3-2-2-0-3----|
B|-3-0-3-3-3-0-3----|
G|-2-0-0-4-2-0-0----|
D|-0-2-0-4-0-2-0----|
A|---2-2-2---2-2----|
E|---0-3-2---0-3----|

Middle Bridge
e|-2---0---3---3---2---0---3---3---2--|
B|-3---2---3---3---3---2---3---3---3--|
G|-4---2---0---0---4---2---0---0---2--|
D|-4---2---0---0---4---2---0---0---0--|
A|-2---0---2---2---2---0---2---2------|
E|-2---0---3---3---2---0---3---3------|

End on D.


------------------------------------------------------------------------
		Hyena - REM
------------------------------------------------------------------------
Tabbed by: Barnaby Wilde
Email:

Intro/Middle Bridge
e|-0--0--0--0--0---0--0--0--0--0-----|
B|-0-0-0--0--0--0--0-0-0--0--0--0----|
G|-9---------------9-----------------|
D|-9----9--9--9--9-7----7--7--7--7---|
A|-7---------------0-----------------|
E|-0---------------0-----------------|

Verse
e|-0---0-0-----------------------------------------------|
B|-0---0-0-----------------------------------------------|
G|-9---9-9-----------------------------------------------|
D|-9---7-9---11-12-12-12-12-12-11-9-11-11-11-11-11-9-7---|
A|-7---0-7-----------------------------------------------|
E|-0---0-0-----------------------------------------------|

Bridge to Chorus
e|--0-----|
B|--0-----|
G|--9-----|
D|-11-----|
A|--0-----|
E|--0-----|

Chorus
e|--0--0--0-0--0--0--0--0--0--0-0-0---|
B|--0--0--0-0--0--0--0--0--0--0-0-0---|
G|--9--9--9-9-12-12-12-11-11-11-9-9---|
D|-11-11-12---------------------------|
A|------------------------------------|
E|------------------------------------|

Bridge to Verse
e|--0--0--0-0--0--0--0--0--0--0--0--0---|
B|--0--0--0-0--0--0--0--0--0--0--0--0---|
G|--9--9--9-9-12-12-12-11-11-11--9--9---|
D|-11-11-12---------------------12-12---|
A|--------------------------------------|
E|--------------------------------------|

End on
e|-0----|
B|-0----|
G|-9----|
D|-9----|
A|-7----|
E|-0----|

------------------------------------------------------------------------
		Underneath The Bunker - REM
------------------------------------------------------------------------
Tabbed by: Barnaby Wilde
Email:

e|----------------------------------------------|
B|----------------------------------------------|
G|-3-4-5-4-3-5-4--------------------2>4-2-0-----|
D|--------------4-5-7-5-4-7-5-5-4-1--------1-2--|
A|---------------------------------2------------|
E|----------------------------------------------|

e|-7-8-10-8-7-10>15-12-15-14-12-------------------------|
B|-----------------------------15-13-13-15h-13-12-10----|
G|------------------------------------------------------|
D|------------------------------------------------------|
A|------------------------------------------------------|
E|------------------------------------------------------|

e|-------------------------------------------------------------|
B|-10-12-13-12-10-12-12-12-12-10-8-10-10-10-10-8-7>8<7-5-4b-5--|
G|-------------------------------------------------------------|
D|-------------------------------------------------------------|
A|-------------------------------------------------------------|
E|-------------------------------------------------------------|

e|-0-0-0------|
B|-0-0-0------|
G|-4-4-4------|
D|-2-2-2------|
A|-2-2-2------|
E|-0-0-0------|

------------------------------------------------------------------------
		The Flowers Of Guatemala - REM
------------------------------------------------------------------------
Tabbed by: Barnaby Wilde
Email:

Verse:
e|------------------------0-----------|
B|-------12---------------------------|
G|---13----13-------------------------|
D|-14--14----14---------14-------14---|
A|-------------14-12-14h---12-14h--14-|
E|------------------------------------|

Chorus:
e|-0---0-3-------0--0-----0----0---|
B|-5---1-3-------2---2-2-3-3-2--2--|
G|-7---0-0-------2-2--2-------2----|
D|-7---2-0--x3---2-----------------|
A|-0---3-2-------0-----------------|
E|-0---0-3-------0-----------------|

Middle Bridge:
e|-0---0---0---0-0---0---0---0------|
B|-0---0---0---0-0---0---0---0------|
G|-5---6---1---2-1---5---6---8------|
D|-6---7---2---2-2---6---7---9------|
A|-6---7---2---2-2---6---7---9------|
E|-4---5---0---0-0---4---5---7------|

Lead:
E-A
e|------------------------------2----|
B|-7-5-7-5-7>10-9-7------8-7----3----|
G|-----------------9-x3-----9-7-2----|
D|------------------------------0----|
A|-----------------------------------|
E|-----------------------------------|

End:
e|--0----|
B|-12----|
G|-13----|
D|-14----|
A|--0----|
E|--0----|


------------------------------------------------------------------------
		I Believe - REM
------------------------------------------------------------------------
Tabbed by: Barnaby Wilde
Email:

Intro Banjo Chords
d|---0----5----------0----5-|
B|---3----5----------3----5-|
G|-2-4h---0----0-2---4h---0-|
D|---0----2----------0----2-|
G|---0----0----------0----0-|

Verse:
Guitar 1
e|-1-1--1--1-1--1--1-1--1--1-1-------|
B|-1--1--1----1--1----1--1----1------|
G|-2---2--2----2--2----2--2----2-----|
D|-3---------------------------------|
A|-3---------------------------------|
E|-1---------------------------------|

Guitar 2
e|-----------------------------------|
B|-----------------------------------|
G|-------0-2-3-2-0--------0-2-3-2-0--|
D|------3---------3------3---------3-|
A|-----3----------------3------------|
E|-0-1h-------------0-1h-------------|

Guitar 1:
e|-1-1--1--1-1--1--1-1--1--1-1---6-6--6--6-6--6---3-3--3--3-3--3---|
B|-1--1--1----1--1----1--1----1--6--6--6----6--6--3--3--3----3--3--|
G|-2---2--2----2--2----2--2----2-7---7--7----7--7-3---3--3----3--3-|
D|-3-----------------------------8----------------4----------------|
A|-3-----------------------------8----------------4----------------|
E|-1-----------------------------6----------------3----------------|

Guitar 2:
e|----------------------1-1-1-1--6----------------3-|
B|----------------------1-1-1-1--6----------------3-|
G|-------0-2-3-2-0--x-x-2-2-2-2--7----------------3-|
D|------3---------3-x-x-3-3-3-3--8----------------4-|
A|-----3------------x-x-3-3-3-3--8----------------4-|
E|-0-1h-------------x-x-1-1-1-1--6----------------3-|

Bridge to Chorus
"There's a key"
e|--8---5---6----8-----|
B|--9---5---6----9-----|
G|-10---5---7---10-----|
D|-10---7---8---10-----|
A|--8---7---8----8-----|
E|--8---7---6----8-----|

Chorus
e|-1-1-1-1-0-0------3--3--3--3---6--6--6--6---|
B|-1-1-1-1-0-1------3---3--3--3--6---6--6--6--|
G|-2-3-3-2-0-0------3----3--3--3-7----7--7--7-|
D|-3-3-3-3-0-2---x3-4-4----------8-8----------|
A|-3-1-1-1-0-3------4------------8------------|
E|-1-1-1-1-0-0------3------------6------------|

Middle Bridge
e|-5--5--5--5---6--6--6--6--------8---8---8---8----|
B|-6---6--6--6--6---6--6--6-------9----9---9---9---|
G|-7----7--7--7-7----7--7--7-----10-----10--10--10-|
D|-7-7----------8-8----------x3--10-10-------------|
A|-5------------8----------------10----------------|
E|-5------------6-----------------8----------------|

End on:
e|-5----|
B|-6----|
G|-7----|
D|-7----|
A|-5----|
E|-5----|

------------------------------------------------------------------------
		What If We Give It Away? - REM
------------------------------------------------------------------------
Tabbed by: Barnaby Wilde
Email:

Verse:
Strum G Chord up at beginning:
e|-------------------0-0-0-0-0---|
B|-------------------2-2-3-2-0---|
G|---------------2-2-2-2-2-2-0---|
D|-0-0-0-0-0-0-0-2-2-2-2-2-2-0---|
A|-x-x-x-x-2-2-2-0-0-0-0-0-0-0---|
E|-3-3-3-3-0-0-0-0-0-------------|

Chorus:
e|-0---0---2---0---0---2-0-2-3---0-0-0-0-0-0--------------------|
B|-0---3---3---0---3---3-3-3-3---3-2-0-0-0-0-3333333333333------|
G|-0---2---2---0---2---2-2-2-0---0-0-0-2-4-0-2222222222222------|
D|-2---0---0---2---0---0-0-0-0---------------0000000000000------|
A|-2-----------2-------------2----------------------------4-2-0-|
E|-0-----------0-------------3----------------------------------|

Middle Bridge:
e|-0---2---0---3---0---2---0-------------|
B|-2---3---1---3---2---3---1-------------|
G|-2---2---0---0---2---2---0-------------|
D|-2---0---2---0---2---0---2---0-0-0-0-0-|
A|-0-------3---2---2-------3---2-3-2-3-0-|
E|-0-------0---3---0-------0---0-0-0-0-0-|

End:
e|-0-----0----------------------|
B|-0-----0----------------------|
G|-0-----2----------------------|
D|-2-x4--0----------------------|
A|-2-----0----------------------|
E|-0-----0----------------------|

------------------------------------------------------------------------
		Just A Touch - REM
------------------------------------------------------------------------
Tabbed by: Barnaby Wilde
Email:

Intro:
e|-0-0-0-0-3---------|
B|-2-2-2-3-3---------|
G|-2-2-2-2-0---------|
D|-2-2-2-2-0---x4----|
A|-0-0-0-0-2---------|
E|-0-0-0-0-3---------|

Verse:
e|-0---3---0---3---0---3---0---3---|
B|-2---3---2---3---2---3---2---3---|
G|-2---0---2---0---2---0---2---0---|
D|-2---0---2---0---2---0---2---0---|
A|-0---2---0---2---0---2---0---2---|
E|-0---3---0---3---0---3---0---3---|

e|-0-0-0-0-3---------|
B|-2-2-2-3-3---------|
G|-2-2-2-2-0---------|
D|-2-2-2-2-0---x4----|
A|-0-0-0-0-2---------|
E|-0-0-0-0-3---------|

Chorus:
e|-4---5--------3----|
B|-5---5--------3----|
G|-6---6--------4----|
D|-6---7---x3---5----|
A|-4---7--------5----|
E|-4---5--------3----|

Bridge:
e|-0---2--------3----|
B|-0---3--------3----|
G|-1---2--------0----|
D|-2---0---x3---0----|
A|-2------------2----|
E|-0------------3----|

End on A.

------------------------------------------------------------------------
		SWAN SWAN H - REM
------------------------------------------------------------------------
Tabbed by: Barnaby Wilde
Email:

Intro
e|--0---------0-----------|
B|--1---------1-----------|
G|--2---------2-----------|
D|--2---0-2h--2---0-2h----|
A|-0--------0-------------|
E|------------------------|

Verse
Guitar 1
e|--0---------1-----------|
B|--1---------3-----------|
G|--2---------2---0-2h----|
D|--2---0-2h--------------|
A|-0----------------------|
E|------------------------|

Guitar 2
e|--------------------------|
B|--------------------------|
G|--------------------------|
D|------0-2-0-------0-2-0---|
A|-0-2-3-----0-0-2-3--------|
E|------------3-------------|

Chorus
Guitar 1
e|-0---0---1---1-------------------|
B|-0---0---1---1-------------------|
G|-0---0---2---2-------------------|
D|-2---2---3---3-------------------|
A|-2---2---3---3-------------------|
E|-0---0---1---1-------------------|

Guitar 2
e|----------------------|
B|----------------------|
G|----------------------|
D|----------------------|
A|-2-0-2-3-0-2-0-2-3----|
E|--3-------1-3------x2-|

Middle Bridge
Guitar 1
e|-3---3---2---2---0---0---2---2--|
B|-3---3---3---3---1---1---3---3--|
G|-0---0---4---4---0---0---2---2--|
D|-0---0---4---4---2---2---0---0--|
A|-2---2---2---2---3---3----------|
E|-3---3---2---2---0---0----------|

Guitar 2
e|--------------------------------------|
B|--------------------------------------|
G|--------------------------------------|
D|-5-555-4-4---4-----------------4-5----|
A|--------7-7-5-7-777-5-7-5-555-7----x2-|
E|--------------------------------------|

------------------------------------------------------------------------
		SUPERMAN - REM
------------------------------------------------------------------------
Tabbed by: Barnaby Wilde
Email:

Intro:
e|-0---0---0---0---0---0---0---0----|
B|-0---3---0---3---0---3---0---0----|
G|-1---1---1---1---1---1---1---1----|
D|-2---2---2---2---2---2---2---2----|
A|-2---2---2---2---2---2---2---2----|
E|-0---0---0---0---0---0---0---0----|

Verse/Chorus:
e|-0---0---0---0-------------|
B|-0---2---2---0-------------|
G|-1---2---2---1---9-7-------|
D|-2---2---2---2------9-7-5--|
A|-2---0---0---2----CHORUS---|
E|-0---0---0---0-----ONLY----|

Middle Bridge:
e|-2-2-2-0-0-0----------------|
B|-3-3-3-2-2-2-5-5---5-5------|
G|-2-2-2-2-2-2----0-1---0-1---|
D|-0-0-0-2-2-2----------------|
A|-------0-0-0-----------x3---|
E|-------0-0-0----------------|

e|-2-2-2-0-0-0-|
B|-3-3-3-2-2-2-|
G|-2-2-2-2-2-2-|
D|-0-0-0-2-2-2-|
A|-------0-0-0-|
E|-------0-0-0-|

e|--0--0--0---0--0--0-0--0--0----0--0--0-|
B|---0--0------0--0----0--0-------0--0---|
G|-1--1--1---6-----------------1---1--1--|
D|-2---------7--7--7----7--7---2---------|
A|---------------------------------------|
E|---------------------------------------|

End:
e|-2-2-2-0-0-0---0-|
B|-3-3-3-2-2-2---0-|
G|-2-2-2-2-2-2---9-|
D|-0-0-0-2-2-2---9-|
A|-------0-0-0---7-|
E|-------0-0-0---0-|
comments
We did not receive enough feedback on this tab! Please rate:
print report bad tab
1 2 3 4 5
I want to post or [tab]
guest
You may want to rate the tab now too:
select rating
Please do not post tabs as comments. Select "correction" instead!