Oops, an error
Loading. Please wait.

Ill Still Be Loving You Tab

ver1
ver1

Whole song

Interactive

More versions @911Tabs.com
1,510 views 3 this week
no commentswrite comment
1 2 3 4 5
please rate
Autoscroll
+/-
esc
set tempo
stop
Contributor
Difficulty
intermediate
Hey! There's an official Ultimate Guitar app which is ideal
for learning songs when you're away from computer. Get the app
WARNING: You are trying to view
                                    content from Ultimate-Guitar.com
                                    in an unauthorized application,
                                    which is prohibited.

                                    Please use an official Ultimate
                                    Guitar Tabs application for iPhone,
                                    iPad or Android to access legitimate
                                    chords, guitar, bass, and drum tabs
                                    from Ultimate-Guitar.com database.

                                    Type "ultimate guitar tabs" in Apple
                                    App Store's or Android Market's
                                    search to find the application.
-----------------------------------------------------------------------------
               Ill Still Be Loving You - Restless Heart (GUITAR)
                       
-----------------------------------------------------------------------------
Tabbed by: Scotto10

Tuning: Standard

=============================================================================

Guitar

Acoustic Guitar (Capo 1st fret)



     Ab                       Dm7/5-                     
     ^                                                   
     E  E  E  E  E  Q.        E      E  E  E  E  Q.      
E||------------------------|----------------------------|
B||-----------------0------|--0---------5---------------|
G||--------0--2--L---------|--4------------4--L---------|
D||--0--0--------0---------|--5------5-----------5------|
A||--2---------------------|--4-------------------------|
E||--3---------------------|----------------------------|


  Db5                        Ebsus4          Eb           
  E   E  E  E  E  E  Q       E      E  E  E  E  E  E  E   
--------------------------|--3------------3--2-----------|
---------3--3--L----------|------------3-----------3-----|
--0---------------0-------|---------2-----------2-----2--|
------2--------------2----|--0---------------0-----------|
--3-----------------------|------------------------------|
--------------------------|------------------------------|


  Ab                       Dm7/5-                       Db5                     
                           ^                                                    
  E  E  E  E  E  Q.        E      E  E  E  E  Q.        E   E  E  E  E  Q.      
------------------------|----------------------------|-------------------------|
-----------------0------|--0---------5---------------|---------3---------------|
--------0--2--L---------|--4------------4--L---------|--0---------0--L---------|
-----0--------0---------|--5------5-----------5------|------2-----------2------|
------------------------|--4-------------------------|--3----------------------|
--3---------------------|----------------------------|-------------------------|


  Ebsus4          Eb            Ab (Add Bb)                     
  E      E  E  E  E  E  Q       E           E  E  E  E  Q.      
--3------------3--2----------|---------------------------------|
------------3-----------3----|--------------------------0------|
---------2-----------2-------|-----------------0--2--L---------|
--0---------------0----------|--------------0--------0---------|
-----------------------------|---------------------------------|
-----------------------------|--3------------------------------|


  Dm7/5-                       Db5 (Add Eb)                     
  ^                                                             
  E      E  E  E  E  Q.        E            E  E  E  E  Q.      
----------------------------|----------------------------------|
--0---------5---------------|------------------3---------------|
--4------------4--L---------|--0------------------0--L---------|
--5------5-----------5------|---------------2-----------2------|
--4-------------------------|--3-------------------------------|
----------------------------|----------------------------------|


  Cm7       Db (add Eb)             Db                      
  E   E  E  E           H           E  E  E  E  E  Q    E   
---------------------------------|-----0--0--0--0--3----3--|
---------3-----------------------|-----1--1--1--1--1----1--|
--2---------0-----------L--------|-----0--0--0--0--0----0--|
------5-----0-----------L--------|-----------------2----2--|
--2---------3-----------L--------|--3----------------------|
---------------------------------|-------------------------|


     Fm                      Eb                        Bbm7                   
  E  E  E  E  E  E  E  E     E  E  E  E  E  Q    E     Q    E  E  E  E  Q     
--L--2--------------------|-----------------3----2--|--2---------------------|
--L--3-----3--------3-----|-----1--1--1--1--1----3--|--3----3--------3-------|
--L--2--2-----2--------2--|-----0--0--0--0--2----2--|--2-------2--L-----2----|
--L--0-----------0--0-----|-----2--2--2--2--0----0--|--0---------------------|
--------------------------|--0----------------------|------------------------|
--------------------------|-------------------------|------------------------|


  Eb                        Bb      F/Bb    Bb         Gm7    F/G       Gm7     
  E  E  E  E  E  E  Q       Q    E  E    E  Q    E     E   E  E   E  E  Q.      
--------------------0----|-------0--0----L--0-------|--0---0--0---0--L--0------|
--------------0----------|-------2--0----L--2-------|--2---0--2---0--L--2------|
-----------1-----1-------|-------2--2----L--2----2--|--2---2--2---2--L--2------|
--------4----------------|-------2--2----L--2-------|--2---2--2---2--L--2------|
-----2-------------------|--0-----------------------|--------------------------|
--0----------------------|--------------------------|--2-----------------------|


  Dm7                        Db          Ab           
  E   E  E  E  E  E  Q       E  E  E  E  E  E  E  E   
------------------0--0----|--0-----------------------|
------------0--0-----0----|-----3--1--------------0--|
---------2--2--2-----2----|--------------------0-----|
------2-------------------|-----------------0--------|
--4-----------------------|--3-----------------------|
--------------------------|-----------3--L-----------|


  Bb      Fsus4    Bb         Gm7    F/G Gm7            
  Q    E  E     E  Q    E     E   E  E   E   E  Q.      
----------0-----L--0-------|--0---0--0---0---L--0------|
-------2--0-----L--2-------|--2---0--2---0---L--2------|
-------2--2-----L--2----2--|--2---2--2---2---L--2------|
-------2--2-----L--2-------|--2---2--2---2---L--2------|
--0------------------------|---------------------------|
---------------------------|--2------------------------|


  Dm7                           Db          Ab          Db             Ab      
  E   E  E  E  E  E  Q       E  E  E  E  E  E  E  E     E  E  E  E  E  Q.      
--------------------------|-----0--0--0--0--3--------|-----0--0--0--0--3------|
------------0--------0----|-----1--1--1--1--0--0--0--|-----1--1--1--1--0------|
---------2--------2-------|-----0--0--0--0--0--0--0--|-----0--0--0--0--0------|
------2-------------------|-----2--2--2--2--0-----0--|-----2--2--2--2--0------|
--4------------4----------|-----3-----------2--------|-----3-----------2------|
--------------------------|-----------------3--------|-----------------3------|


  Eb (add F)                                           
  E          E  E  E  E  E  E  E     W                 
-------------------0--L--L--L--L--|--L----------------|
----------------3--------3--L--L--|--L----------------|
-------------2--------------2--L--|--L----------------|
--0----------------------------0--|--L----------------|
----------------------------------|-------------------|
----------------------------------|-------------------|


  Dbadd9                                            Ab                     
  ^                                                                        
  E      E  E  E  E  E  Q       W                   E  E  E  E  E  Q.      
--0------------0--L--L--L----|--L----------------|------------------------|
--3---------3--------3--L----|--L----------------|-----------------0------|
--0------0--------------0----|--L----------------|--------0--2--L---------|
--2--------------------------|-------------------|-----0--------0---------|
--3--------------------------|-------------------|------------------------|
-----------------------------|-------------------|--3---------------------|


  Dm7/5-                       Db5                     
  ^                                                    
  E      E  E  E  E  Q.        E   E  E  E  E  Q.      
----------------------------|-------------------------|
--0---------5---------------|---------3---------------|
--4------------4--L---------|--0---------0--L---------|
--5------5-----------5------|------2-----------2------|
--4-------------------------|--3----------------------|
----------------------------|-------------------------|


  Ebsus4          Eb            Ab (Add Bb)                     
  E      E  E  E  E  E  Q       E           E  E  E  E  Q.      
--3------------3--2----------|---------------------------------|
------------3-----------3----|--------------------------0------|
---------2-----------2-------|-----------------0--2--L---------|
--0---------------0----------|--------------0--------0---------|
-----------------------------|---------------------------------|
-----------------------------|--3------------------------------|


  Dm7/5-                       Db5 (Add Eb)                     
  ^                                                             
  E      E  E  E  E  Q.        E            E  E  E  E  Q.      
----------------------------|----------------------------------|
--0---------5---------------|------------------3---------------|
--4------------4--L---------|--0------------------0--L---------|
--5------5-----------5------|---------------2-----------2------|
--4-------------------------|--3-------------------------------|
----------------------------|----------------------------------|


  Cm7       Db (add Eb)             Db                      
  E   E  E  E           H           E  E  E  E  E  Q    E   
---------------------------------|-----0--0--0--0--3----3--|
---------3-----------------------|-----1--1--1--1--1----1--|
--2---------0-----------L--------|-----0--0--0--0--0----0--|
------5-----0-----------L--------|-----------------2----2--|
--2---------3-----------L--------|--3----------------------|
---------------------------------|-------------------------|


     Fm                                                                       
  E  E  E  E  E  E  E  E     E  E  E  E  E  Q    E     Q    E  E  E  E  Q     
--L--2--------------------|-----------------3----2--|--2---------------------|
--L--3-----3--------3-----|-----1--1--1--1--1----3--|--3----3--------3-------|
--L--2--2-----2--------2--|-----0--0--0--0--2----2--|--2-------2--L-----2----|
--L--0-----------0--0-----|-----2--2--2--2--0----0--|--0---------------------|
--------------------------|--0----------------------|------------------------|
--------------------------|-------------------------|------------------------|


  E  E  E  E  E  E  Q       Q    E  E  E  Q    E     E  E  E  E  E  Q.      
--------------------0----|-------0--0--L--0-------|--0--0--0--0--L--0------|
--------------0----------|-------2--0--L--2-------|--2--0--2--0--L--2------|
-----------1-----1-------|-------2--2--L--2----2--|--2--2--2--2--L--2------|
--------4----------------|-------2--2--L--2-------|--2--2--2--2--L--2------|
-----2-------------------|--0---------------------|------------------------|
--0----------------------|------------------------|--2---------------------|


  E  E  E  E  E  E  Q       E  E  E  E  E  E  E  E     Q    E  E  E  Q    E   
-----------------0--0----|--0-----------------------|----------0--L--0-------|
-----------0--0-----0----|-----3--1--------------0--|-------2--0--L--2-------|
--------2--2--2-----2----|--------------------0-----|-------2--2--L--2----2--|
-----2-------------------|-----------------0--------|-------2--2--L--2-------|
--4----------------------|--3-----------------------|--0---------------------|
-------------------------|-----------3--L-----------|------------------------|


  E  E  E  E  E  Q.        E  E  E  E  E  E  Q       E  E  E  E  E  E  E  E   
--0--0--0--0--L--0------|-------------------------|-----0--0--0--0--3--------|
--2--0--2--0--L--2------|-----------0--------0----|-----1--1--1--1--0--0--0--|
--2--2--2--2--L--2------|--------2--------2-------|-----0--0--0--0--0--0--0--|
--2--2--2--2--L--2------|-----2-------------------|-----2--2--2--2--0-----0--|
------------------------|--4-----------4----------|-----3-----------2--------|
--2---------------------|-------------------------|-----------------3--------|


                                                      F (Added G)       
  E  E  E  E  E  Q.        E  E  E  E  E  E  E  E     W                 
-----0--0--0--0--3------|-----------0--L-----0-----|-------------------|
-----1--1--1--1--0------|--------3-----3--------3--|-------------------|
-----0--0--0--0--0------|-----2-----------2--------|-------------------|
-----2--2--2--2--0------|--0-----------------------|-------------------|
-----3-----------2------|--------------------------|-------------------|
-----------------3------|--------------------------|-------------------|


  Bm7/5-              Bb (added C)        F/C      C         
  W                   W                   H        H         
-------------------|-------------------|--------------------|
-------------------|-------------------|--------------------|
-------------------|-------------------|--------------------|
-------------------|-------------------|--------------------|
-------------------|-------------------|--------------------|
-------------------|-------------------|--------------------|


  F (Add G)           Bm7/5-              Am7               
  W                   W                   W                 
-------------------|-------------------|-------------------|
-------------------|-------------------|-------------------|
-------------------|-------------------|-------------------|
-------------------|-------------------|-------------------|
-------------------|-------------------|-------------------|
-------------------|-------------------|-------------------|


  Ab       Eb          F (add g)                                  
  H        H           W                   Q    E  E  E  Q    E   
--------------------|-------------------|-------0--0--L--0-------|
--------------------|-------------------|-------2--0--L--2-------|
--------------------|-------------------|-------2--2--L--2----2--|
--------------------|-------------------|-------2--2--L--2-------|
--------------------|-------------------|--0---------------------|
--------------------|-------------------|------------------------|


  E  E  E  E  E  Q.        E  E  E  E  E  E  Q       E  E  E  E  E  E  E  E   
--0--0--0--0--L--0------|-----------------0--0----|--0-----------------------|
--2--0--2--0--L--2------|-----------0--0-----0----|-----3--1--------------0--|
--2--2--2--2--L--2------|--------2--2--2-----2----|--------------------0-----|
--2--2--2--2--L--2------|-----2-------------------|-----------------0--------|
------------------------|--4----------------------|--3-----------------------|
--2---------------------|-------------------------|-----------3--L-----------|


  Q    E  E  E  Q    E     E  E  E  E  E  Q.        E  E  E  E  E  E  Q     
----------0--L--0-------|--0--0--0--0--L--0------|-------------------------|
-------2--0--L--2-------|--2--0--2--0--L--2------|-----------0--------0----|
-------2--2--L--2----2--|--2--2--2--2--L--2------|--------2--------2-------|
-------2--2--L--2-------|--2--2--2--2--L--2------|-----2-------------------|
--0---------------------|------------------------|--4-----------4----------|
------------------------|--2---------------------|-------------------------|


  E  E  E  E  E  E  E  E     E  E  E  E  E  Q.        E  E  E  E  E  E  E  E   
-----0--0--0--0--3--------|-----0--0--0--0--3------|-----------0--0--L--L--L--|
-----1--1--1--1--0--0--0--|-----1--1--1--1--0------|--------3--------3--L--L--|
-----0--0--0--0--0--0--0--|-----0--0--0--0--0------|-----2--------------2--L--|
-----2--2--2--2--0-----0--|-----2--2--2--2--0------|--0--------------------0--|
-----3-----------2--------|-----3-----------2------|--------------------------|
-----------------3--------|-----------------3------|--------------------------|


                      ^                                           
  W                   E  E  E  E  Q    E  E     W                 
--L----------------|--0--------0--L----L--L--|--L----------------|
--L----------------|--3-----3-----3----L--L--|--L----------------|
--L----------------|--0--0-------------0--L--|--L----------------|
--L----------------|--2-------------------2--|--L----------------|
-------------------|--3----------------------|--3----------------|
-------------------|-------------------------|-------------------|


  E  E  E  E  E  E  Q       E  E  E  E  E  E  E  E     E  E  E  E  Q    Q     
-----------0--L----------|-----------0--L-----------|--------------0---------|
--------3--------3-------|--------3--------3--------|-----------3-------3----|
--2--2--------------2----|-----2--------------2-----|--------0---------------|
--0----------------------|--0--------------------0--|-----2------------------|
-------------------------|--------------------------|--3---------------------|
-------------------------|--------------------------|------------------------|


  E  E  E  E  S  E  S E  E     E  E  E  E  E  E  Q     
----------------------------|-----------0--L----------|
--------3-----3-----3-L-----|--------3--------3-------|
-----0--2--0--2h-4--2-L--0--|--2--2--------------2----|
----------------------------|--0----------------------|
--3-------------------------|-------------------------|
----------------------------|-------------------------|


  E  E  E  E  E  E  E  E     E  E  E  E  Q    Q     
-----------0--L-----------|--------------0---------|
--------3--------3--------|-----------3-------3----|
-----2--------------2-----|--------0---------------|
--0--------------------0--|-----2------------------|
--------------------------|--3---------------------|
--------------------------|------------------------|


  E  E  E  E  S  E  S E  E     E  E  E  E  E  E  Q     
----------------------------|-----------0--L----------|
--------3-----3-----3-L-----|--------3--------3-------|
-----0--2--0--2h-4--2-L--0--|--2--2--------------2----|
----------------------------|--0----------------------|
--3-------------------------|-------------------------|
----------------------------|-------------------------|


  E  E  E  E  E  E  E  E     E  E  E  E  Q    Q     
-----------0--L-----------|--------------0---------|
--------3--------3--------|-----------3-------3----|
-----2--------------2-----|--------0---------------|
--0--------------------0--|-----2------------------|
--------------------------|--3---------------------|
--------------------------|------------------------|


  E  E  E  E  S  E  S E  E    
----------------------------||
--------3-----3-----3-L-----||
-----0--2--0--2h-4--2-L--0--||
----------------------------||
--3-------------------------||
----------------------------||


-----------------------------------------------------------------
-----------------------------------------------------------------
-----------------------------------------------------------------

Guitar solo


                                  Q    E  S S E  E  E   E   
-------|-------|-------|-------|---------------------------|
-------|-------|-------|-------|----------5-5-5--7--7S--9--|
-------|-------|-------|-------|---------------------------|
-------|-------|-------|-------|--2-------6-6-6--7--7S--9--|
-------|-------|-------|-------|---------------------------|
-------|-------|-------|-------|--0------------------------|


  H        E  S  S S E.     S  E   S H        E  S  S  
--------------7S-4-4-----|----------------------------|
--9--------L---------5---|-----------------------5S-7-|
-------------------------|--4S-6S--4-L--------L-------|
--8--------L-------------|-----------------------6S-7-|
-------------------------|----------------------------|
-------------------------|----------------------------|


   Q    E  S S E.  S E.  S    Q    E  S S E  E  E   E   
---------------------------|---------------------------|
--/9----L--7-5-7---5-4---5-|--L-------5-5-5--7--7S--9--|
---------------------------|---------------------------|
--/9----L------------------|----------6-6-6--7--7S--9--|
---------------------------|---------------------------|
---------------------------|---------------------------|


  E  E  E  E  Q    E  S S    E  E  E  E  H         
----------------------4-5-|--4--4--4--------------|
--9--9--9--9--L----L--4---|--5--4--4--7-----------|
-----9--8--6--L----L------|--------------4--------|
--8-----------------------|-----------------------|
--------------------------|-----------------------|
--------------------------|-----------------------|


  E  S S  E  E  E  S  S E  E     E  E  E  S S E  E  E   E                   
----------------3--3S-5-L--0--|---------------0--2--4--/7--|-------|-------|
-------------3----------------|--0----------0--------------|-------|-------|
-------2h-4-------------------|-----------1----------------|-------|-------|
-----5------------------------|--------4-------------------|-------|-------|
------------------------------|-----2----------------------|-------|-------|
------------------------------|--0-------------------------|-------|-------|





Duration Legend
---------------
W - whole
H - half
Q - quarter
E - 8th
S - 16th
T - 32nd
X - 64th
. - note dotted
|-n-|  - n-tuplets


Tablature Legend
----------------
L - tied note
x - dead note
g - grace note
(n) - ghost note
> - accentuded note
NH - natural harmonic
AH - artificial harmonic
TH - tapped harmonic
SH - semi harmonic
PH - pitch harmonic
h - hammer on
p - pull off
b - bend
br - bendRelease
pb - preBend
pbr - preBendRelease
brb - bendReleaseBend
\n/ - tremolo bar dip
\n - tremolo bar dive
-/n - tremolo bar Release up
/n\ - tremolo bar inverted dip
/n - tremolo bar return
-\n - tremolo bar Release down
S - shift slide
s - legato slide
/ -  slide into from below or out of upwards
\ -  slide into from above or out of downwards
~ - vibrato
W - wide vibrato
tr - trill
TP - tremolo picking
T - tapping
S - slap
P - pop
< - fade in
^ - brush up
v - brush down
comments
We did not receive enough feedback on this tab! Please rate:
print report bad tab
1 2 3 4 5
I want to post or [tab]
guest
You may want to rate the tab now too:
select rating
Please do not post tabs as comments. Select "correction" instead!