Oops, an error
Loading. Please wait.

Simply Jessie Tab

ver1
ver1

Solo

Whole song

More versions @911Tabs.com
11,884 views 18 this week
1 commentread comment
1 2 3 4 5
excellent!
x 5
Autoscroll
+/-
esc
set tempo
stop
Contributor
Difficulty
intermediate
Hey! There's an official Ultimate Guitar app which is ideal
for learning songs when you're away from computer. Get the app
WARNING: You are trying to view
                                    content from Ultimate-Guitar.com
                                    in an unauthorized application,
                                    which is prohibited.

                                    Please use an official Ultimate
                                    Guitar Tabs application for iPhone,
                                    iPad or Android to access legitimate
                                    chords, guitar, bass, and drum tabs
                                    from Ultimate-Guitar.com database.

                                    Type "ultimate guitar tabs" in Apple
                                    App Store's or Android Market's
                                    search to find the application.

Well nobody seems to get the correct tab of the song especially the intro. It’s kind of
so I decided to share it. I think my versions 100% correct. But lets reduce it to 99.99%
can’t be too sure. This is a very beautiful song and I dedicate it to all the Jessie’s 
the world and to all who loves this song, I made this for you…. Ant to all
in the world, Rock ON! And hello to my bandmates Yeye, Lea, Vianney and Mark…hey guys, 
jam this vacation! Enjoy this tab!


Title: Simple Jessie
Artist: Rex Smith
Tuning: Standard (EADGBe)
Tabbed by: Icebreaker Trese (Twinkle I. Mangi) 17, female (*_*) duh
Date: January 22, 2007, 12:45 AM
Date Posted in UG:
Friendster: icebreaker_trese@yahoo.com
	    x3m_rocker@yahoo.com
MySpace:    twinkle_imperial_mangi@yahoo.com.ph
Yahoo Messenger: chum_bukkit57
Mobile: 09177312039

Legend:
h-hammer on, p-pull off, /-slide to, hb-half-bend(you just strike that note and push it
while its vibrating (direction to the ceiling to get the 9 note, it makes the sound
that’s why)

Intro: just pluck the bass notes and strum downwards. Sounds perfect.

AM7
e|-------0--|-------0--|-------0--|-------0--|
B|-------2--|-------2--|-------2--|-------2--|
G|-------1--|-------1--|-------1--|-------1--|
D|-------2--|-------2--|-------2--|-------2--|
A|---0------|---0------|---0------|---0------|
E|----------|----------|----------|----------|

DM7

e|-----2--|-----2--|-----2--|-----2--|
B|-----2--|-----2--|-----2--|-----2--|
G|-----2--|-----2--|-----2--|-----2--|	REPEAT ALL 2X
D|--0-----|--0-----|--0-----|--0-----|
A|--------|--------|--------|--------|
E|--------|--------|--------|--------|


Then the piano riff comes in (you can play it on guitar, baby!)
e|----------------------------------------------|
B|----------------------------------------------|
G|--13h14-13------13h14-13-11-------------------| I think
D|-----------14---------------------------------| it plays
A|----------------------------------------------| four times
E|----------------------------------------------|


Verse 1 (do intro)

AM7			DM7
And I don’t know how I knew it
	AM7		DM7
But I knew it somehow
		Bm7		A
You’re the answer to the question
	     Bm7		E
No ones answered till now


Refrain

		DM7		   A
And I don’t know what you see
DM7		     A
What you see in me
DM7				A
But girl that’s nothing to
B7sus		   E7
What I see in you

Chorus (do intro)
		AM7
Stars that glisten
	DM7
Lips for kissing
	AM7		DM7
Honey, listen its true
    Bm7		A
No one’s ever loved you better
	    Bm7			E7
Love you honey, I love you

Adlib:

GUITAR 1
Part 1 (The tiniwniwniniw part) I’m sure about this
I think it was played on an electric organ or something I don’t know…it’s kinda trembling
e|--12---------12--------12-----------14-----------|
B|-----14---------14--------13h14p12-----14---10---|
G|--------13---------13----------------------------|	2 times
D|-------------------------------------------------|
A|-------------------------------------------------|
E|-------------------------------------------------|

Part 2

(Well, I looked at my tab collection and I noticed somebody has already tabbed this
but I think mines better and I guarantee you I never copied it, and I figured it all out for
only two minutes, swear!)


I started on the ninth fret so it goes along in transition from Part 1.
e|--------------14r---14p12-12-5---10p9h10--5----5-5h7—8hb----|
B|--9h10-10/12------------------------------------------------|
G|------------------------------------------------------------|
D|------------------------------------------------------------|
A|------------------------------------------------------------|
E|------------------------------------------------------------|
Note: the last note 8hb(note C), should be nine, or (C#), but if you bend it, it sounds
like I explained in the legend above.

GUITAR 2 solo: just do the intro and refrain chords 1 time, or whatever goes along, I
bothered because it’s easy to figure out.

Refrain 2
	    DM7		  A
And I’ve known a girl or two
	DM7			A
But none of them was you
	DM7			A
And they could never be
B7sus				E
What you are to me….eh….


Chorus (do intro) (not sure if you raise the chords one half step)
		BbM7
Stars that glisten
	EbM7
Lips for kissing
	BbM7		EbM7
Honey, listen its true
    Cm7		Bb
No one’s ever loved you better


	    Cm7			F
Love you honey, I love you

Coda
Do intro 1 one half step higher,---(BbM7-EbM7)
Or just put a capo on the first fret
BbM7-EbM7
I love you, oh ohhhhh
I love you oh hoooohhh
I love you hmmmmm

Spoken
I love you…

Intro again…

End

Nice song AYT? So for any comments or suggestion, death threats (God forbid!) or any
reactions, my contact details are above… icebreaker_trese
comments
print report bad tab
1 comment total.
0 reply
Twinkle Mangi wrote on July 21 2010, 01:11 am

1c3breaker here, now 20 years old, haha i noticed my solo wasn't accurate... dammit. i just invented that shit from listening to it i never bothered to check if it matches. LOL

I want to post or [tab]
guest
You may want to rate the tab now too:
select rating
Please do not post tabs as comments. Select "correction" instead!