Oops, an error
Loading. Please wait.

Beyond The Gates Of Infinity Tab

ver1
ver1

Whole song

Interactive

More versions @911Tabs.com
1,313 views 12 this week
no commentswrite comment
1 2 3 4 5
please rate
Autoscroll
+/-
esc
set tempo
stop
Hey! There's an official Ultimate Guitar app which is ideal
for learning songs when you're away from computer. Get the app
WARNING: You are trying to view
                                    content from Ultimate-Guitar.com
                                    in an unauthorized application,
                                    which is prohibited.

                                    Please use an official Ultimate
                                    Guitar Tabs application for iPhone,
                                    iPad or Android to access legitimate
                                    chords, guitar, bass, and drum tabs
                                    from Ultimate-Guitar.com database.

                                    Type "ultimate guitar tabs" in Apple
                                    App Store's or Android Market's
                                    search to find the application.
****************************************************************************************
* RHAPSODY - BEYOND THE GATES OF INFINITY (From the album: SYMPHONY OF ENCHANTED LANDS *
****************************************************************************************
 Music & Words by: Alex Staropoli/Luca Turilli

Transcribed By: Niclas Buss
Day Upgraded: 19-21.6.2001
Email: nbuss@ironmaiden.com

------------------------------

 Normal Tuning!!!

E-----------------------------------------------------------------------------------|
B--Orchestra-&-SFX--|---------------------------------------------------------------|
G-------Intro-------|--8-8\-------8-8\------8\-8~-----------------------------------|
D-----(33-sec.)-----|--8-8\-------8-8\------8\-8~--\-8-8\-----8\----8\-8--8-8\---8~~|
A-------------------|--6-6\-------6-6\------6\-6~--\-8-8\-----8\----8\-8--8-8\---8~~|
E--------------------------------------------------\-6-6\-----6\----6\-6--6-6\---6~~|

E-----------------------------------------------------------------------------------|
B-----------------------------------------------------------------------------------|
G-----------------------------------------------------------------------------------|
D~----8-8---------8-----6-----9-------8-----8-----6------------8-----9-----9-------8|
A~----8-8---/-6-6---9-9---8-8---6-6-6---9-9---8-8---8-9\6--6-6---6-6---8-8---6-6-6--|
E~----6-6---------------------------------------------------------------------------|

E-----------------------------------------------------------------------------------|
B-----------------------------------------------------------------------------------|
G-----------------------------------------------------------------------------------|
D-----8-----6-----------------------------------------------------------------------|
A-9-9---8-8---8-9\6--------8-----6-----7---9\6-----8-----6-----9\6-8---------8-----6|
E--------------------\-6-6---9-9---8-8---8-----6-6---9-9---8-8-------9---6-6---9-9--|

E-----------------------------------------Gtr.2:-<9>\--Trem.bar---------------------|
B------------------------------------------------<9>\-\--dive-----------------------|
G------------------------------------------------<9>\-\\\--------/10-9--------------|
D---------------------------------------3--3-\--------\\\\\\-----------7h8-7--------|
A-----7---9\6-----8-----6-----9\6-8-----3--3-\----3\---\\\\\\----------------5-/9-8-|
E-8-8---8-----6-6---8-8---8-8-------9---1--1-\----1\------\\-\----------------------|

                                                                    Guitar 1
E-----------------------------------------------------------------|-----------------|
B-----------------------------------------------------------------|-----------------|
G-----------------------------------------------------------------|-8-7-5-8-7-5-8-7-|
D-----------------------------------------------------------------|-----------------|
A--------------------5-------------------------------------5------|-----------------|
E-5-6-8-5~-8-8-8-8-7---8-7-5~-8-8-8-8-7\4-5-7-5~-8-8-8-8-7---8-7--|-----------------|
          pm..............|  pm..............|  pm..............| | Guitar 2        |
                                                                 E|-----------------|
                                                                 B|-----------------|
                                                                 G|-----------------|
                                                                 D|-----------------|
                                                                 A|-6-5-3-6-5-3-6-5-|
                                                                 E|-----------------|

  Riff 1                                                        x2              end
E-------------------------------------------------------------------|---------------|
B-------------------------------------------------------------------|---------------|
G*-----5--4-7-5-4-----5--4-----4-----5--4-7-5-4-/-8-7-5-8-7-5-8-7--*|--8-7-5-8-7-5-8|
D*--7--------------7-------6-7----7--------------------------------*|---------------|
A-------------------------------------------------------------------|---------------|
E-------------------------------------------------------------------|---------------|
                                                                    |               |
E-------------------------------------------------------------------|---------------|
B-------------------------------------------------------------------|---------------|
G*-----------------------------------------------------------------*|---------------|
D*-----------------------------------------------------------------*|---------------|
A------3--2-5-3-2-----3--2-----2-----3--2-5-3-2-/-6-5-3-6-5-3-6-5---|--6-5-3-6-5-3-6|
E---5--------------5-------4-5----5---------------------------------|---------------|

  Riff 1      Verse 1 
E----------||--Clean-Sound:--------0---------5~-------------------------------------|
B----------||----Guitar----------6--------------------------------------4h5--------5|
G-7--------||------------------7------7----------------4h6----6~------6--------6----|
D--~\8~~---||----------------0----------7~--------------------7~-------------6---6--|
A----------||--------------------------------------0~---------------4---------------|
E------~---||-----------------------------------------------------------------------|
           ||                                                                       |
E----------||--Nylon-Guitar:-------0----------------------------------------------4-|
B----------||--------------------6-----------6---------------------4h5----------5---|
G----------||------------------7------7-------------------6---7-9------6------6-----|
D----------||----------------0-------------------------7----7------------6----------|
A-5--------||--------------------------------------0~----------------------4--------|
E---\6~~---||-----------------------------------------------------------------------|

E-----------------------------2(-------------------------------------------------10-|
B-----------------------------2)---5~-------5p4------5---------7(--/--10)-----10----|
G-----6-------6---------------2(----------------6----6----7(---7)--/--11(--11-------|
D-------8-------9-8-6------4--4)----------6----------6----7)---7(--/--12)-----------|
A--6------------------9----4-----------/4-----------------5(------------------------|
E--------------------------2--------------------------------------------------------|
                                                                                    |
E-3---4---6~-/9-7-6-----------------------------------------------------------7-----|
B---4---4-----------9-7----7--5--5-----------------5------------------------5----5--|
G---------------------------------6----------6------------------7---/--11-----------|
D----------------------------------6--------------------------7---------------------|
A-----------------------------------7---4-----------------5-------------------------|
E-----------------------------------------------------------------------------------|

                                      Bridge
E/14~-------------------------------|-----------------------------------------------|
B-----------------------------------|-----------------------------------------------|
G------5----------5-----------------|--5----8--------------8-----------------------5|
D------6----------6-----------------|--5----8----6---------8----------7------------5|
A------6----------6-----------------|--3----6----6---------6----------7------------3|
E------4----------4--------2~-\-0~--|------------4--------------------5-------------|
                                    |                                               |
E---------4---5-4h5p4---5-----------|-----------------------------------------------|
B-------7---7---------7-------------|------------9--11-12--11---------11~--12-14--13|
G-----6-----------------------------|--5----8------------------11-----11~-----------|
D--------------------------4~-\-2---|--5----8---------------------13----------------|
A-----------------------------------|--3----6---------------------------------------|
E-----------------------------------|-----------------------------------------------|

                                         Verse 2
E---------------------------|-------------------------------------------------------|
B---------------------------|----------|--------------------------------------------|
G---------10----------9~~---|--Riff-1--|--------------------------------------------|
D---------10----------10~---|----------|--------------------------------------------|
A----------8----------7~----|----------|--5-5-5-5-5-5-5-5--5-5-5-5-5-5--8~-5~-------|
E---------------------------|-------------------------------------------------5~--5-|
                            |            pm...........................|          pm
E----------13---------15~---||
B~-15-17-------13-----------||
G-----------------14--------||
D---------------------------||
A---------------------------||
E---------------------------||

E-----------------------------------------------------------------------------------|
B-------------------------------------------------------------A.H.------------------|
G---------------------------------------------------------------6~------------------|
D----------------------------/7~-----------------------------------6~---------------|
A--------------------------------7~-----/4--4-4-4--4-4-4-4-4-4--------4~-/-6--6-6-6-|
E-5-5-5-5-5-5-5--5-5-5-5-5-5--------9~----------------------------------------------|
 ...........................|           pm....................|           pm........

E-----------------------------------------------------------------------------------|
B-------------A.H.------------------------------------------------------------------|
G--------------8~-------------------------------------------------------------------|
D---8---9---6-----8~----------------------------------------------------------------|
A-6---6---6----------6~----------------------------------2~-4~--/4--4-4-4--4-4-4--4-|
E------------------------\2--2-2-2--2-2-2--2-2-2--2-2/5~----------------------------|
 ..| pm  pm             pm...........................|         pm...................

E-----------------------------------------------------------------------------------|
B-----------------------------------------------------------------------------------|
G-----------------------------------------------------------------------------------|
D----------6~----------------------------------------------7-7---------7-7--7-----7-|
A-4-4--4-4----7~-4~--/-5-5-5-5--5-5--5-5-5-5--5-5--5-5-5-5-----5-5-5-5--------------|
E-----------------------------------------------------------------------------4-4---|
 .........|          pm...................................|   pm......|      pm..|

                                        Riff 2
E-----------------------------------------------------------------------------------|
B--------------------------|----------|---------------------------------------------|
G--------------------------|--Bridge--|---------------------------------------------|
D-----7---6-----4----A.H.--|----------|----------------------/4--4-4----------------|
A---------------------7~---|----------|--5--5-5-\4-4-----4-4---------7-7-5-4---4-/-5|
E-4-4---4---4-4---4-4--------------------------------7-7---------------------7------|
 pm..| pm  pm..| pm..                   pm..........................................

E-----------------------------------------------------------------------------------|
B-----------------------------------------------------------------------------------|
G-----------------------------------------------------------------------------------|
D-------------------------------------------------------------/4--4-4---------------|
A-5-5-\4-4-----4-4-------------------2-/--5--5-5-4-4------4-4---------7-7-5-4---4-/-|
E----------7-7-----\5--5-5-4-4-2-4-5------------------7-7---------------------7-----|
 ...................................................................................

                         Guitar 1                      Chorus (2)
E----------------------|-----------------------------|------------------------------|
B----------------------|-----------------------------|------------------------------|
G----------------------|-----------------------------|------------------------------|
D----------------------|--3-----6---------6-/-9-\-6--|------------------------------|
A-5--5-5-\4-4-----4-4--|-----------4-/-8-------------|------------------------------|
E-------------7-7------|-----4-----------------------|--2~-1~--2~-1~--/-5~-4~--5~-4~|
 ....................| | Guitar 2                    |                              |
                      E|-----------------------------|------------------------------|
                      B|-----------------------------|------------------------------|
                      G|---------------6--4-/-7-\-4--|------------------------------|
                      D|--3-----6--------------------|------------------------------|
                      A|-----------8-----------------|------------------------------|
                      E|-----4-----------------------|--2~-1~--2~-1~--/-5~-4~--5~-4~|

                                                                                Guit
E--------------------------------------------------------------|--------------|-----|
B--------------------------------------------------------------|--------------|-----|
G----------------/6-----5-----------7--------------------------|--Orchestra---|*----|
D--------------------6-----4~~--\---7-----7----8----7~~-----\--|--------------|*----|
A-----------------------------------5-----7----8----7~~-----\--|--------------|-----|
E-\2~-1~--2~-1~---------------------------5----6----5~~-----\--|--------------|---1~|
                                                               |              |     |
E--------------------------------------------------------------|--------------|-----|
B--------------------------------------------------------------|--------------|-----|
G-----------------------------------7--------------------------|--Orchestra---|*----|
D-----------------------7-----------7-----7----8----7~~-----\--|--------------|*----|
A----------------/9--7-----6~~--\---5-----7----8----7~~-----\--|--------------|-----|
E\2~-1~-/-5~-4~---------------------------5----6----5~~-----\--|--------------|---1~|
                        _____________ ________________________ _________________
 ars enter at (3:39)   |1.3.         |2.                      |4.               |
E----------------------|-------------|------------------------|-----------------||--|
B----------------------|-------------|------------------------|-----------------||--|
G----------------------|------------*|-----------------------*|-----------------||-/|
D----------------------|------/-5~--*|----------/-5~---------*|----------/-5~~--||--|
A-------/2-3~----------|------/-3~---|----------/-3~----------|----------/-3~~--||--|
E--3-4~--------3~--6~--|--4~--/-3~---|--4-/-6~--/-3~--/20\\\--|--4-/-6---/-3~~--||--|
                       |             |                        |                 ||
E----------------------|-------------|------------------------|-----------------||
B----------------------|-------------|------------------------|-----------------||
G----------------------|------------*|------------------------|-----------------||
D----------------------|------/-5~--*|----------/-5~----------|---------/-5~~---||
A-------/2-3~----------|------/-3~---|----------/-3~----------|---------/-3~~---||
E--3-4~--------3~--6~--|--4~--/-3~---|-4-/-6~---/-3~--/20\\\--|--4-/-6--/-3~~---||

                                                     Orchestra Riff arraged for Guit
E--------------------------------------------------|--Piano-------------------------|
B--------------------------------------------------|--------------------------------|
G-4~~--6--4~-------/-4~~---6~-/-9~--8~------4-4\---|---11-10--------8-7-10-8------/7|
D-------------6~~---------------------------4-4\---|----------9-10------------8-9---|
A-------------------------------------------2-2\---|--------------------------------|
E--------------------------------------------------|--------------------------------|
                                         |         |
                                        E|---------|--Contra-Bass-&-Violin----------|
                                        B|---------|--------------------------------|
                                        G|--4-4\---|--11~----10~---------------7~--6|
                                        D|--4-4\---|---------------10~---9~---------|
                                        A|--2-2\---|---9~-----8~---------------5~--4|
                                        E|---------|----------------8~---7~---------|

 ars                                 Guitar enter at (5:08)
E----5-4-------------|-------------|------------------------------------------------|
B---------9-4-/-8~---|-------------|------------------------------------------------|
G-6------------------|--Orchestra--|--4-4~\-------------------------9\--------------|
D--------------------|-------------|--4-4-\------5~------9\---------9\---------9\---|
A--------------------|-------------|--2-2-\------4~------9\---------7\---------9\---|
E--------------------|-------------|---------------------7\-7-9-10-----7-9-10--7\---|
                     |             |            <<<<<<                              |
E--------------------|-------------|------------------------------------------------|
B--------------------|-------------|------------------------------------------------|
G~-------------------|--Orchestra--|-------------6~-----------------9\--------------|
D---7~---6~-----5~---|-------------|-------------5~------9\---------9\---------9\---|
A~-------------------|-------------|---------------------9\---------7\---------9\---|
E---5~---4~-----3~~--|-------------|---------------------7\-7-9-10-----7-9-10--7\---|
                                   |            <<<<<<<                             |
                                  E|-----------------------------/-<5>--\\----------|
                                  B|-----------------------------/-<5>--\\-\\-//-\\-|
                                  G|--------Play-with-Tremolo----/-<5>--\\-\\-//-\\-|
                                  D|--------------------Bar:---------------\\-//-\\-|
                                  A|------------------------------------------------|
                                  E|------------------------------------------------|

E-----------------------------------------------------------------------------------|
B-----------------------------------------------------------------------------------|
G------------9\-------------------6-------------------9\---------------11\----------|
D-9\---------9\----------9\-----6---6~--\--9\---------9\----------9\----9\--9-11-12-|
A-9\---------7\----------9\---4------------9\---------7\----------9\----------------|
E-7\-7-9-10------7-9-10--7\----------------7\-7-9-10------7-9-10--7\----------------|

E-----------------------------------------------------------------------------------|
B-----------------------------------------------------------------------------------|
G------------9\-------------------3-3~--\-------------9\----------------------------|
D-9\---------9\----------9\-----3---2~--\--9\---------9\----------9\-----9\---------|
A-9\---------7\----------9\---1-----1~--\--9\---------7\----------9\-----9\---------|
E-7\-7-9-10------7-9-10--7\----------------7\-7-9-10------7-9-10--7\-----7\--7-9-10-|

E----------------------------------------------------<9>-//////---------------------|
B-//-\\----------------------//-///--//--------------<9>-/////----------------------|
G-//--\\---\\\-------------///---//-//--------------------------\\<7>-////////////--|
D-//--\\--\\-------------///-----///--//-----------------------\\\<7>-////////////--|
A------\\\--\\\--------///-------///--//--------------------------------------------|
E-----------\\\-----------------------//--------------------------------------------|

E----------------------------------|------------------------------------------------|
B-12\------------------------------|-------------------------------------------3-5h6|
G--9\----------11\-----------------|*---7-7\----7----6\-----7-7\----7--------2------|
D------9-11-12--9\-------11--------|*---7-7\----7----6\-----7-7\----7------3--------|
A---------------------11----11~----|----5-5\--5-5--5-4\-4-4-5-5\--5-5----5----------|
E-------------------9--------------|----------------------------------\5------------|
                                   |         pm        pm..|     pm   pm........|
E----------------------------------||
B----------------------------------||
G--12\-----------------------------||
D--12\----------9\--------8--8~----||
A--10\----------9\-----8-----7~----||
E-------7-9-10--7\--6--------6~----||
                                   |
E----------------------------------||
B--\\\-----------------------------||
G--\\--\\--------------------------||
D------\\--\\----------------------||
A----------\\----\\-----\\--\\-----||
E----------------\\-----\\--\\-----||
                                                                x2   Guitar during K
E-----------------------------------------------------------------------------------|
Bp5p3--------------------------------------/-3p2-----/5-6p5p3------|----------------|
G-----6~--7-7\----7----6\------------2-----------4p2----------6~--*|----------------|
D---------7-7\----7----6\----------3---3--------------------------*|--8-----5----7--|
A---------5-5\--5-5--5-4\-4-4----5-------5-------------------------|--8-----5----7--|
E-----------------------------\5--------------------------------------6-----3----5--|
               pm   pm   pm.................|  pm....|  

 eyboard Solo                                            Guitar Solo
E-----------------------------------------------------------------------------------|
B------------------------------------------------------|----------------------------|
G------------------------------------------------------|--/7~----7-9-10--9-7-10-9~--|
D---------------------8-----6----7---------------------|-------7--------------------|
A--/5-3-1---1---------8-----5----7---------------------|----------------------------|
E---------5---5-3-1---6-----4----5----5-5-5-5-5-5-5-5-------------------------------|
  pm...............|                 pm...............|

E-----------------------------------------------------------------------------------|
B----------------------A.H.---------------------------------------------------------|
G-7-6-7-----/-6~----6-8-9~-8--6-----------------------------------------------------|
D-------7~--------6---------------9~--8~---7~--6--5--6~-----7--7-7-7--6-7-6---------|
A-------------------------------------------------------7~------------------9-7-9~~-|
E-----------------------------------------------------------------------------------|
                                                           pm..................|

E-----------------------------------------------------------------------------------|
B----------------------------------8-/-11~---12-11-9-11-12-9-11-12-\11-9-7-9-11-7-9-|
G--------------------------9~-------------------------------------------------------|
D-----------7~---6~/-10~--------10--------------------------------------------------|
A--7~-5~----------------------------------------------------------------------------|
E-----------------------------------------------------------------------------------|

E-----------------------------------------------12-/15-15p13------------------------|
B-11-/-14-12-10-12-14-10-14~--13----------13-15--------------13----18\13------------|
G--------------------------------12----12-----------------------14-------14-12----12|
D-----------------------------------14-----------------------------------------14---|
A-----------------------------------------------------------------------------------|
E-----------------------------------------------------------------------------------|

                                              Flute Outro Solo arranged for Guitar:
E----12--15~--/-19~~~---------------------------14~--12-----------------------------|
B-13------------------|----------|----------|------------12--15~--13--12--12~--10--\|
G---------------------|--Riff-2--|--Chorus--|---------------------------------------|
D---------------------|----------|----------|---------------------------------------|
A---------------------|----------|----------|---------------------------------------|
E-----------------------------------------------------------------------------------|

E----------/11~--12---14---14h15p14h15p14h15p14---12~~--~\---||
B-8~--8------------------------------------------------------||
G-------9----------------------------------------------------|| end
D------------------------------------------------------------||
A------------------------------------------------------------||
E------------------------------------------------------------||

--------------------------------------------------------------------------------------

  Rhythm Guitar druing Guitar Solo
E-----------------------------------------------------------------------------------|
B-----------------------------------------------------------------------------------|
G-----------------------------------------------------------------------------------|
D------------------------------------------------------------------------/7~--------|
A--5-5-5-5-5-5-5-5--5-5-5-5-5-5--8~-5~---------------------------------------7~----/|
E--------------------------------------5~--\5-5-5-5-5-5-5-5--5-5-5-5-5-5--------9~--|
  pm...........................|          pm............................|

                                                                        Guitar 1
E---------------------------------------------------------------------|--9)--9--9--9|
B----------------------A.H.--------------------------------A.H.-------|-10(-10-10-10|
G-----------------------/6~---------------------------------8~--------|-11)-11-11-11|
D---------------------------6~-------------------8---9---6-----8~-----|-11(-11-11-11|
A-4--4-4-4--4-4-4-4-4-4--------4~--/-6--6-6-6--6---6---6----------6~--|--9)---------|
E---------------------------------------------------------------------|-------------|
 pm.....................|           pm..........| pm  pm              | Guitar 2    |
                                                                     E|-(Nylon-Gtr)-|
                                                                     B|---7----5----|
                                                                     G|-------------|
                                                                     D|-------------|
                                                                     A|-------------|
                                                                     E|-------------|

E----------------------\-4)--4-4-4--------------/-5)--5-5-5-------------------------|
B-10)---------------9--\-5(--5-5-5---5)---------/-7(--7-7-7---7(--------------------|
G-11)--11-11-11--11----\-6)--6-6-6---6(--6-6-6--/-7)--7-7-7---7)--7-7-7----------7-9|
D-11(--11-11-11--------\-6(--6-6-6---6)--6-6-6--/-7(--7-7-7---7(--7-7-7--------7----|
A--9)---9--9--9--------\-4)----------4(--4-4-4--/-5)----------5)--5-5-5----5-9------|
E-----------------------------------------------------------------------------------|
                                                                                    |
E-----------------------------------------------------------------------------------|
B---4---------------------5----4----------5--------------5-----7-----/10~-----------|
G----------6-------------------------6-----------\7------------------------------7-9|
D-----------------------------------------------------0-----0-----0------------7----|
A--------------------------------------------------------------------------5-9------|
E-----------------------------------------------------------------------------------|

E---------------------|----------||
B----9-10-9~----------|----------||
G-11-----------8-11---|--Bridge--|| end
D---------------------|----------||
A---------------------|----------||
E---------------------|----------||
                      |          ||
E---------------------|----------||
B----9-10-9~--\4-7----|----------||
G-11------------------|--Bridge--|| end
D---------------------|----------||
A---------------------|----------||
E---------------------|----------||

--------------------------------------------------------------------------------------

=======================
=TABLATURE EXPLANATION=
=======================

A.H. = Artificial Harmonic

pm..| = Palm mute

h = hammer on

p = pull off

/ = slide up

\ = slide down

~ = Vibrato

b() = Bend

x\ = Pick Slide

--------
--------
---12--- = Tremolo pick
----/---
----/---
----/---

---.---
--12--- = Staccato
-------
-------
-------

|     |
|     |
|*   *| = repeat from * to *
|*   *| 
|     |
comments
We did not receive enough feedback on this tab! Please rate:
print report bad tab
1 2 3 4 5
I want to post or [tab]
guest
You may want to rate the tab now too:
select rating
Please do not post tabs as comments. Select "correction" instead!