Oops, an error
Loading. Please wait.

Dargor Shadowlord Of The Black Mountain Tab

ver1
ver1

Whole song

Interactive

More versions @911Tabs.com
2,478 views 1 this week
no commentswrite comment
1 2 3 4 5
excellent!
x 5
Autoscroll
+/-
esc
set tempo
stop
Hey! There's an official Ultimate Guitar app which is ideal
for learning songs when you're away from computer. Get the app
WARNING: You are trying to view
                                    content from Ultimate-Guitar.com
                                    in an unauthorized application,
                                    which is prohibited.

                                    Please use an official Ultimate
                                    Guitar Tabs application for iPhone,
                                    iPad or Android to access legitimate
                                    chords, guitar, bass, and drum tabs
                                    from Ultimate-Guitar.com database.

                                    Type "ultimate guitar tabs" in Apple
                                    App Store's or Android Market's
                                    search to find the application.
*****************************************************************************************
* RHAPSODY - DARGOR, SHADOWLORD OF THE BLACK MOUNTAIN (From the album: DAWN OF VICTORY) *
*****************************************************************************************
 Music and Words By: Turilli & Staropoli/Turilli

Transcribed By: Niclas Buss
Day tabbed: 19.12.2000
email: nbuss@ironmaiden.com

Please mail me if you can find mistakes!

-----------------------------------------
"This is the tab to the album version"
-----------------------------------------

 Normal Tuning!!

              Intro
E-----------------------------------------------------------------------------------|
B-----------|-----------------------------------------------------------------------|
G--5--------|*--9----------10-----------9-----------7-----------5-------4~-/-9------|
D----9-7-6--|*--7-----------7-----------7-----------7-----------7-------6~-/-7------|
A-----------|------0-0-0-0-----0-0-0-0-----0-0-0-0-----0-0-0-0-----0-0----------0-0-|
E-----------------------------------------------------------------------------------|
                  pm......|   pm......|   pm......|   pm......|   pm..|        pm...

E-----------------------------------------------------------------------------------|
B--------------------------------------A.H.-----------------------------------------|
G-----10-----------9-----------10-------7~-b(9)-\-9----------10-----------9---------|
D------7-----------7------------7-----------------7-----------7-----------7---------|
A-0-0-----0-0-0-0-----0-0-0-0------0-0---------------0-0-0-0-----0-0-0-0-----0-0-0-0|
E-----------------------------------------------------------------------------------|
 ....|   pm......|   pm......|    pm..|             pm......|   pm......|   pm......|

                                                         (end Intro) x2    Verse 1
E-----------------------------------------------------------------------||----------|
B----------------------------------------------------9------------------||----------|
G-7-----------5-----------4~---------------------------9---------------*||---2------|
D-7-----------7-----------6~-----------------------------9~--10-9-7\6--*||---2---\-2|
A----0-0-0-0-----0-0-0-0------8-5-8\5---5-6---7---7---------------------||---0---\-2|
E-------------------------------------7-----5---0-----------------------||-------\-0|
    pm......|   pm......|    pm..............|

E-----------------------------------------------------------------------------------|
B-------------------------------------------6~--------------------------------------|
G---------4---------4----2-------4~---------7--7~--------2----7---------------------|
D---5-----4----2----4----2--/-2--4~----5----7-------3----2----7----7----5--/--7-----|
A---5-----2----2----2----0--/-4--2~----5----5-------3----0----5----7----5--/--7-----|
E---3----------0-----------------------3------------1--------------5----3--/--5-----|

  Bridge                                                             Chorus
E-----------------------------------------------------------------------------------|
B------------------------------------------------------------------|----------------|
G------------------------------------------------------------------|--5---------3--/|
D------------------------------------------------------------------|--5----5----3--/|
A----2-3~----------2-3~----------2-3~-----------2-3----------------|--3----5----1--/|
E--5------3~-5~--5------3~-1~--5-------3~-5~--5-----1~-3~--3\--3~----------3--------|

E-----------------------------------------------------------------------------------|
B---------------------------------------------------------|-------------------------|
G--7---------5~-----------7-------------------------------|--9----------10----------|
D--7----3----5~--\--5-----7-------------------------------|--7-----------7----------|
A--5----3----3~--\--5-----5-------------2~--5~---3--------|-----0-0-0-0-----0-0-0-0-|
E-------1--------\--3---------\-1~--4~-------------7-5-4----------------------------|
        						       pm......|   pm......|

E-----------------------------------------------------------------------------------|
B-----------------------------------------------------------------------------------|
G-9-----------7-----------5-------4~-/-9----------10-----------9----------10------/-|
D-7-----------7-----------7-------6~-/-7-----------7-----------7-----------7--------|
A----0-0-0-0-----0-0-0-0-----0-0----------0-0-0-0-----0-0-0-0-----0-0-0-0-----0-0---|
E-----------------------------------------------------------------------------------|
    pm......|   pm......|   pm...|       pm......|   pm......|   pm......|   pm..|

E---10~-----------------------------------------------------------------------------|
B-----------------------------------------------------------------------------------|
G7~------7~--\-9----------10-----------9-----------7-----------5------4-------------|
D------------\-7-----------7-----------7-----------7-----------7------6-------------|
A-----------------0-0-0-0-----0-0-0-0-----0-0-0-0-----0-0-0-0-----0-0-----8-5-8\5---|
E---------------------------------------------------------------------------------7-|
                 pm......|   pm......|   pm......|   pm......|   pm..|   pm.........

E-----------------------------------------------------------------------------------|
B--------------9--------------------------------------------------------------------|
G----------------9-----------------------------/-9----------10-----------9----------|
D------------------9~-/-10h12p10p9-------------/-7-----------7-----------7----------|
A-5-6---7---7----------------------12p10p9----------0-0-0-0-----0-0-0-0-----0-0-0-0-|
E-----5---0--------------------------------12~--------------------------------------|
 ......|                                           pm......|   pm......|   pm......|

E-----------------------------------------------------------------------------------|
B--------------------------------------------------------------------A.H.-----------|
G-7----------5-------4~-/-9----------10-----------9----------10-------7~-b(9)--r7~-/|
D-7----------7-------6~-/-7-----------7-----------7-----------7--------------------/|
A---0-0-0-0-----0-0----------0-0-0-0-----0-0-0-0-----0-0-0-0-----0-0----------------|
E-----------------------------------------------------------------------------------|
   pm......|   pm..|        pm......|   pm......|   pm.......|  pm..|

E-----------------------------------------------------------------------------------|
B------------------------------------------------------------------6-----8-----10---|
G-9----------10-----------9-----------7-----------5-------4~-----5-----7-----9------|
D-7-----------7-----------7-----------7-----------7-------6~--\3-----5-----7------9-|
A----0-0-0-0-----0-0-0-0-----0-0-0-0-----0-0-0-0-----0-0----------------------------|
E-----------------------------------------------------------------------------------|
    pm......|   pm.......|  pm......|   pm.......|  pm..|

                                      Verse 2
E-----------------------------------------------------------------------------------|
B---12----13~---12--/13--12--10--9--|-----------------------------------------------|
G11-------12~---11--/12--11---9--8--|---2--------------4---------4----2------4~-----|
D------10-----9-----/10---9---7--6--|---2----2----5----4----2----4----2--/2--4~--\-5|
A-----------------------------------|---0----2----5----2----2----2----0--/4--2~--\-5|
E--------------------------------------------0----3---------0--------------------\-3|

E-----------------------------------------------------------------------------------|
B-----------------------------------------------------------------------------------|
G--------------------------7------------------------------------------------------2-|
D--------------------------7-------------------------\-3--------------------------2-|
A--------------------------5-5-5-5-5-5-5-5-5-5-5-5-5-\-3--------------------------0-|
E-3-3-3-3-3-3-3-3-3-3-3-3----------------------------\-1-1-1-1-1-1-1-1-1-1-1-1-1----|
 pm......................|  pm......................|   pm......................|
 
E-----------------------------------------------------------------------------------|
B-----------------------------------------------------------------------------------|
G--------------------------7--------------------------------------------------------|
D--------------------------7--------------------------7--------------------------5--|
A-0-0-0-0-0-0-0-0-0-0-0-0--5-5-5-5-5-5-5-5-5-5-5-5-5--7--------------------------5--|
E-----------------------------------------------------5-5-5-5-5-5-5-5-5-5-5-5-5--3-3|
 pm......................|  pm......................|  pm......................|  pm

E-----------------------------------------------------------------------------------|
B----------------------------------------------------|----------|----------|--------|
G----------------------------------------------------|--Bridge--|--Chorus--|*--9----|
D-----------------------/-7--------------------------|----------|----------|*--7----|
A-----------------------/-7--------------------------|----------|----------|------0-|
E-3-3-3-3-3-3-3-3-3-3-3-/-5-5-5-5-5-5-5-5-5-5-5-5-5---------------------------------|
 ......................|   pm......................|                             pm.

E-----------------------------------------------------------------------------------|
B-----------------------------------------------------------------------------------|
G-------10-----------9-----------7-----------5-------4~-/-9----------10-----------9-|
D--------7-----------7-----------7-----------7-------6~-/-7-----------7-----------7-|
A-0-0-0-----0-0-0-0-----0-0-0-0-----0-0-0-0-----0-0----------0-0-0-0-----0-0-0-0----|
E-----------------------------------------------------------------------------------|
 ......|   pm......|   pm......|   pm......|   pm...|       pm......|   pm......|
                  __________________________________________________________________
                 |1.
E----------------|------------------------------------------------------------------|
B----------------|A.H.--------------------------------------------------------------|
G---------10-----|-7~--b(9)-\-9----------10-----------9-----------7-----------5-----|
D----------7-----|------------7-----------7-----------7-----------7-----------7-----|
A-0-0-0-0----0-0-|---------------0-0-0-0-----0-0-0-0-----0-0-0-0-----0-0-0-0-----0-0|
E----------------|------------------------------------------------------------------|
 pm......|  pm..|               pm.......|  pm.......|  pm.......|  pm.......|  pm..|
 _______________________________________________ ___________________________________
                                                |2.
E-----------------------------------------------|-----------------------------------|
B----------------------------9------------------|-Trem.bar--------------------------|
G-4~---------------------------9---------------*|-<7>~-/////////--9----------10-----|
D-6~-----------------------------9~--10-9-7\6--*|-----------------7-----------7-----|
A-----8-5-8\5---5-6---7---7---------------------|--------------------0-0-0-0-----0-0|
E-------------7-----5---0-----------------------|-----------------------------------|
     pm..............|                                              pm......|   pm..
 ___________________________________________________________________________________

E-----------------------------------------------------------------------------------|
B-----------------------------------------------------------------9-----------------|
G------9-----------7-----------5-------6~---------------------------9---------------|
D------7-----------7-----------7-------4~-----------------------------9~--10-9-7\6--|
A-0-0-----0-0-0-0-----0-0-0-0-----0-0------8-5-8\5---5-6---7---7--------------------|
E--------------------------------------------------7-----5---0----------------------|
 ....|   pm.......|  pm......|   pm..|   pm................|
 _____
      | 		Interlude
E-----||----------------------------------------------------------------------------|
B-----||--------------|--17p13----------13h17p13-/15p12----------12h15p12-/-13p10---|
G-----||--Orchestra---|--------14----14-----------------13----13------------------11|
D-7\--||--------------|-----------14-----------------------14-----------------------|
A-7\--||--------------|-------------------------------------------------------------|
E-5\--||----------------------------------------------------------------------------|

E-----------------------------------------------------------------------------------|
B-------10h13p10-/12p9-------9h12p9-/-17p13----------13h17p13-/15p12----------12h15p|
G----11----------------9---9----------------14----14-----------------13----13-------|
D-13---------------------9---------------------14-----------------------14----------|
A-----------------------------------------------------------------------------------|
E-----------------------------------------------------------------------------------|

E-----------------------------------------------------------------------------------|
B12-/-13p10-------13p10----------------/-17p13----------13h17p13-/15p12----------12h|
G-----------11----------11-----14~-13~---------14----14-----------------13----13----|
D--------------13----------13---------------------14-----------------------14-------|
A-----------------------------------------------------------------------------------|
E-----------------------------------------------------------------------------------|

E-----------------------------------------------------------------------------------|
B15p12-/13p10----------10h13p10-/12p9-------9h12p9-/-17p13----------13h17p13-/15p12-|
G-------------11----11----------------9---9----------------14----14-----------------|
D----------------13---------------------9---------------------14--------------------|
A-----------------------------------------------------------------------------------|
E-----------------------------------------------------------------------------------|

	         Two Guitars......|   Guitar Solo 1
E--------------------------------------------------------------/16p12----------12h16|
B----------12-h17-17\15-13-12-------|--17p13----------13h17p13--------12----12------|
G-13----13---------7~---------14~---|--------14----14--------------------13---------|
D----14------------7~----9~----7~---|-----------14----------------------------------|
A------------------5~----9~----7~---|-----------------------------------------------|
E------------------------7~----5~---------------------------------------------------|

Ep12-/17p14----------------14h17p14-/21p17----------17h21p17-/-22p17----------17h22p|
B-----------14----------14-----------------19----19------------------19----19-------|
G--------------14----14-----------------------18------------------------19----------|
D-----------------16----------------------------------------------------------------|
A-----------------------------------------------------------------------------------|
E-----------------------------------------------------------------------------------|

E17-17p12----------12h17p12-/17p12----------12h17p12--------------------------------|
B---------14----14-----------------13----13----------\17p13----------13h17p13~------|
G------------14-----------------------14--------------------14----14-----------\-14-|
D--------------------------------------------------------------14-------------------|
A-----------------------------------------------------------------------------------|
E-----------------------------------------------------------------------------------|

E-----------------------------------------------------------------------------------|
B------------------------------------------------------/17-15-13-17-15-17-13-17-17b(|
G-17-16-17-16-14-17-16-14-17-16-14-/-17-19-16-19-17-19------------------------------|
D-----------------------------------------------------------------------------------|
A-----------------------------------------------------------------------------------|
E-----------------------------------------------------------------------------------|

				Guitar & Keyboard Lead Riff
E--------------------------------13-17-16-17----17-16-17-12-17-16-17-----/-10-13-12-|
B18)--r17~--|-----------------|--------------15----------------------13~------------|
G-----------|--Keyboard-Solo--|-----------------------------------------------------|
D-----------|--------1--------|-----------------------------------------------------|
A-----------|-----------------|-----------------------------------------------------|
E-----------------------------------------------------------------------------------|

                                   Chorus (2)
E-13----13-12-13--------------------------------------------------------------------|
B----12----------10~--|----------|--------------------------------------------------|
G---------------------|--Bridge--|--5--------3--/--7---------5~-----------7---------|
D---------------------|----------|--5----5---3--/--7----3----5~---\--5----7---------|
A---------------------|----------|--3----5---1--/--5----3----3~---\--5----5---------|
E----------------------------------------3--------------1---------\--3--------1~--4~|

E-----------------------------------------------------------------------------------|
B----------------------------------------------------------------------|------------|
G----------------------------------------------------------------------|--Guitar-Sol|
D----------------------------------------------------------------------|------------|
A-2~--5~---3-2--------------2~--5~--3-2--------------2~--5~---3-2------|------------|
E--------------5-4-\1~--4~--------------5-4-\1~--4~---------------5-4---------------|

E------------------------------------------------------------||
B-----|-------------------|--------------------------|-------||
Go-1--|--Keyboard-Solo-1--|--Guitar-&-Keyboard-Riff--|-------|| end
D-----|-------------------|--------------------------|--7\---||
A-----|-------------------|--------------------------|--7\---||
E-------------------------------------------------------5\---||

--------------------------------------------------------------------------------------

  Rhythm Guitar during Guitar Solo 1
E-----------------------------------------------------------------------------------|
B-----------------------------------------------------------------------------------|
G--2---------------------------6-------/-7-----------------7------------------------|
D--2--------2-------/-4--------6-------/-7--------7--------7--------2--------\-2----|
A--0-0-0-0--2-------/-4--------4-4-4-4-/-5-5-5-5--7--------5-5-5-5--3--------\-2----|
E-----------0-0-0-0-/-2-2-2-2---------------------5-5-5-5-----------5-5-5-5--\-0-0-0|
    pm....|  pm....|   pm....|  pm....|   pm....|  pm....|  pm....|  pm....|    pm..

E----------------------------------||
B----------------------------------||
G----------------------------------|| end
D----------------------------------||
A--------------5--------/3-2-------||
E-0-0-0-0-0-0-----0-0-0------5-4~--||
 ............|   pm....|

  Rhythm Guitar during Keyboard Solo 1
E-----------------------------------------------------------------------------------|
B-----------------------------------------------------------------------------------|
G--2---------------------------6-------/-7-----------------7------------------------|
D--2--------2-------/-4--------6-------/-7--------7--------7--------2--------\-2----|
A--0-0-0-0--2-------/-4--------4-4-4-4-/-5-5-5-5--7--------5-5-5-5--3--------\-2----|
E-----------0-0-0-0-/-2-2-2-2---------------------5-5-5-5-----------5-5-5-5--\-0-0-0|
    pm....|  pm....|   pm....|  pm....|   pm....|  pm....|  pm....|  pm....|    pm..

E----------------------------------||
B----------------------------------||
G----------------------------------|| end
D----------------------------------||
A--------------5--------/3-2-------||
E-0-0-0-0-0-0-----0-0-0------5-4~--||
 ............|   pm....|

  Rhythm Guitar during Guitar & 
  Keyboard Lead Riff
E----------------------------------||
B----------------------------------||
G----------------------------------|| end
D--3~------2~----------------------||
A------5~------3~-/--5~--2~--------||
E----------------------------5~~---||

--------------------------------------------------------------------------------------


=======================
=TABLATURE EXPLANATION=
=======================

A.H. = Artificial Harmonic

pm..| = Palm mute

h = hammer on

p = pull off

/ = slide up

\ = slide down

~ = Vibrato

b() = Bend

x\ = Pick Slide

--------
--------
---12--- = Tremolo pick
----/---
----/---
----/---

---.---
--12--- = Staccato
-------
-------
-------

|     |
|     |
|*   *| = repeat from * to *
|*   *| 
|     |
comments
print report bad tab
I want to post or [tab]
guest
You may want to rate the tab now too:
select rating
Please do not post tabs as comments. Select "correction" instead!