Oops, an error
Loading. Please wait.

Emerald Sword Tab

ver3
ver3

Intro

Whole song

More versions @911Tabs.com
13,226 views 9 this week
3 commentsread comments
1 2 3 4 5
excellent!
x 4
Autoscroll
+/-
esc
set tempo
stop
Contributor
Difficulty
advanced
Hey! There's an official Ultimate Guitar app which is ideal
for learning songs when you're away from computer. Get the app
WARNING: You are trying to view
                                    content from Ultimate-Guitar.com
                                    in an unauthorized application,
                                    which is prohibited.

                                    Please use an official Ultimate
                                    Guitar Tabs application for iPhone,
                                    iPad or Android to access legitimate
                                    chords, guitar, bass, and drum tabs
                                    from Ultimate-Guitar.com database.

                                    Type "ultimate guitar tabs" in Apple
                                    App Store's or Android Market's
                                    search to find the application.
Emerald Sword
Rhapsody
Track number 5 from Tales from the Emerald Sword Saga
Tabbed By: Mariano Arnaiz
Anything to : marianoarnaiz@hotmail.com
Tunning: Standard (EADGBe)

Reakky hard song to tab, really hard to learn, but not that hard to play. I couldnt get 
main solo Luca is too
damn good, sorry about that, but i know the rest of it is very good. I hope you can 
all of it, if you cant ask me.
also remember you dont have to play the keyboard solo but i dont know the chords for 
parts, so...

This is what i´ve got

Guitar Intro

e||------||
B||------||
G||--11--||
D||--x---||
A||--9---||
E||------||

e||---------------------------|----------------------|---------------------------|-----------------------||
B||---------------------------|----------------------|---------------------------|-----------------------||

x4
D||--9-----9------------------|--12------12p11-9-----|--9-----9------------------|------12------12-------||
A||---------------------------|------------------12--|---------------------------|-----------------------||
E||---------------------------|----------------------|---------------------------|-----------------------||

Keyboard Solo 1

e||-----------15------------|--20-18-17-15-18-17-15----15---15-18--|--15-17-18----22--|--23-22-20-18---------||
B||--------15------18---18--|-----------------------18-------------|-----------18-----|--------------22--22--||
G||-----15------------------|--------------------------------------|------------------|----------------------||
D||--17---------------------|--------------------------------------|------------------|----------------------||
A||-------------------------|--------------------------------------|------------------|----------------------||
E||-------------------------|--------------------------------------|------------------|----------------------||

e||---------------18----------23.FullBend--20----20--|--23-22-20----22-20---------------||
B||---22-20-19-20----22-20-22-----------------22-----|-----------23-------23-22-20--20--||
G||--------------------------------------------------|----------------------------------||
D||--------------------------------------------------|----------------------------------||
A||--------------------------------------------------|----------------------------------||
E||--------------------------------------------------|----------------------------------||

Verse 1

e||---------------------------|---------------------------|---------------------------|-------------------||
B||---------------------------|---------------------------|---------------------------|-------------------||
G||--5------------------------|---------------------------|--8------------------------|--7----7-7--5------||
D||--5------------------------|--5------------------------|--8------------------------|-----8--------8----||
A||--3--33333333333333333333--|--5------------------------|--6--66666666666666666666--|----------------8--||
E||---------------------------|--3--33333333333333333333--|---------------------------|-------------------||

e||---------------------------|---------------------------|---------------------------|------------------------||
B||---------------------------|---------------------------|---------------------------|------------------------||
G||---------------------------|--5------------------------|---------------------------|-----------------7-4----||
D||--3------------------------|--5------------------------|--4------------------------|--5------------------5--||
A||--3------------------------|--3--33333333333333333333--|--4------------------------|--5---------------------||
E||--1--11111111111111111111--|---------------------------|--2--22222222222222222222--|--3--3333333333---------||

Verse 2

e||---------------------------|---------------------------|---------------------------|-------------------||
B||---------------------------|---------------------------|---------------------------|-------------------||
G||--5------------------------|---------------------------|--8------------------------|--7----7-7--5------||
D||--5------------------------|--5------------------------|--8------------------------|-----8--------8----||
A||--3--33333333333333333333--|--5------------------------|--6--66666666666666666666--|----------------8--||
E||---------------------------|--3--33333333333333333333--|---------------------------|-------------------||

e||---------------------------|---------------------------|---------------------------||
B||---------------------------|---------------------------|---------------------------||
G||---------------------------|--5------------------------|---------------------------||
D||--3------------------------|--5------------------------|--4------------------------||
A||--3------------------------|--3--33333333333333333333--|--4------------------------||
E||--1--11111111111111111111--|---------------------------|--2--22222222222222222222--||

Pre-Chorus

e||-----|---------|-----|---------||
B||-----|---------|-----|---------||
G||--5--|---------|--5--|--6------|| x2
D||--5--|--6---3--|--5--|--6---8--||
A||--3--|--6---3--|--3--|--4---8--||
E||-----|--4---1--|-----|------6--||

Keyboard Solo 2

e||------------------------20-18--|--18-16-16-15-15---------------|--------------------------------||
B||--13-----13-15--16-------------|------------------18-18-16-16--|--21-20---------------------18--||
G||------12-----------13----------|-------------------------------|--------22-20-19--20--17-20-----||
D||-------------------------------|-------------------------------|--------------------------------||
A||-------------------------------|-------------------------------|--------------------------------||
E||-------------------------------|-------------------------------|--------------------------------||

e||--15----20-18--22-20-20-18-18--------------------------|--16-15-13----18--||
B||-----16-----------------------21-21-20-20-21-21-20-20--|----------16-15---||
G||-------------------------------------------------------|------------------||
D||-------------------------------------------------------|------------------||
A||-------------------------------------------------------|------------------||
E||-------------------------------------------------------|------------------||

Verse 3

e||---------------------------|---------------------------|---------------------------|-------------------||
B||---------------------------|---------------------------|---------------------------|-------------------||
G||--5------------------------|---------------------------|--8------------------------|--7----7-7--5------||
D||--5------------------------|--5------------------------|--8------------------------|-----8--------8----||
A||--3--33333333333333333333--|--5------------------------|--6--66666666666666666666--|----------------8--||
E||---------------------------|--3--33333333333333333333--|---------------------------|-------------------||

e||---------------------------|---------------------------|---------------------------|------------------------||
B||---------------------------|---------------------------|---------------------------|------------------------||
G||---------------------------|--5------------------------|---------------------------|-----------------7-4----||
D||--3------------------------|--5------------------------|--4------------------------|--5------------------5--||
A||--3------------------------|--3--33333333333333333333--|--4------------------------|--5---------------------||
E||--1--11111111111111111111--|---------------------------|--2--22222222222222222222--|--3--3333333333---------||

Verse 4

e||---------------------------|---------------------------|---------------------------|-------------------||
B||---------------------------|---------------------------|---------------------------|-------------------||
G||--5------------------------|---------------------------|--8------------------------|--7----7-7--5------||
D||--5------------------------|--5------------------------|--8------------------------|-----8--------8----||
A||--3--33333333333333333333--|--5------------------------|--6--66666666666666666666--|----------------8--||
E||---------------------------|--3--33333333333333333333--|---------------------------|-------------------||

e||---------------------------|---------------------------|---------------------------||
B||---------------------------|---------------------------|---------------------------||
G||---------------------------|--5------------------------|---------------------------||
D||--3------------------------|--5------------------------|--4------------------------||
A||--3------------------------|--3--33333333333333333333--|--4------------------------||
E||--1--11111111111111111111--|---------------------------|--2--22222222222222222222--||

Pre-Chorus

e||-----|---------|-----|---------||    ||-----||
B||-----|---------|-----|---------||    ||-----||
G||--5--|---------|--5--|--6------|| x2 ||--5--||
D||--5--|--6---3--|--5--|--6---8--||    ||--5--||
A||--3--|--6---3--|--3--|--4---8--||    ||--3--||
E||-----|--4---1--|-----|------6--||    ||-----||

Chorus

e||-----|-----|-----|-----||-----|-----|-----|-----||
B||-----|-----|-----|-----||-----|-----|-----|-----||
G||--6--|--8--|-----|--5--||--6--|-----|-----|-----||
D||--6--|--8--|--3--|--5--||--6--|--8--|--6--|--6--||
A||--4--|--6--|--3--|--3--||--4--|--8--|--6--|--6--||
E||-----|-----|--1--|-----||-----|--6--|--4--|--4--||

e||-----|-----|-----|-----||-----|-----|-----|-----||
B||-----|-----|-----|-----||-----|-----|-----|-----||
G||-----|--8--|-----|--5--||--6--|--8--|-----|-----||
D||--6--|--8--|--3--|--5--||--6--|--8--|--6--|--6--||
A||--6--|--6--|--3--|--3--||--4--|--6--|--6--|--6--||
E||--4--|-----|--1--|-----||-----|-----|--4--|--4--||

Keyboard Pre-Solo
                                                                              -
e||--------------|--4--6-8-6-4--|--8--10-11-10-8--|--13--10-11-10-8--||        |
B||--6--8-9-8-6--|--------------|-----------------|------------------||        |
G||--------------|--------------|-----------------|------------------||        |
D||--------------|--------------|-----------------|------------------||        |
A||--------------|--------------|-----------------|------------------||        |
E||--------------|--------------|-----------------|------------------||        |
                                                                               |  x2 
all of it twice)
e||--------------|--4--6-8-6-4--|--8--10-11-10-8--|--13--16--15-13-11-10--||   |
B||--6--8-9-8-6--|--------------|-----------------|-----------------------||   |
G||--------------|--------------|-----------------|-----------------------||   |
D||--------------|--------------|-----------------|-----------------------||   |
A||--------------|--------------|-----------------|-----------------------||   |
E||--------------|--------------|-----------------|-----------------------||   |

Guitar Solo                                                                         -
e||---------------------------|---------------------------||
B||---------------------------|---------------------------||
G||---------------------------|---------------------------||
D||---------------------------|---------------------------||
A||---------------------------|---------------------------||
E||---------------------------|---------------------------||

Keyboard Post-Solo

e||--15--13-15-16--15-13--|----------------------|------13-15-16--18-16--|--15-13-----------|-------/16--||
B||-----------------------|--16-15-13-16-15--12--|--16-------------------|--------16-15-13--|--12--------||
G||-----------------------|------------------12--|-----------------------|------------------|--12--------||
D||-----------------------|----------------------|-----------------------|------------------|--12--------||
A||-----------------------|----------------------|-----------------------|------------------|------------||
E||-----------------------|----------------------|-----------------------|------------------|------------||

Verse 5

e||---------------------------|---------------------------|---------------------------|-------------------||
B||---------------------------|---------------------------|---------------------------|-------------------||
G||--5------------------------|---------------------------|--8------------------------|--7----7-7--5------||
D||--5------------------------|--5------------------------|--8------------------------|-----8--------8----||
A||--3--33333333333333333333--|--5------------------------|--6--66666666666666666666--|----------------8--||
E||---------------------------|--3--33333333333333333333--|---------------------------|-------------------||

e||---------------------------|---------------------------|---------------------------|------------------------||
B||---------------------------|---------------------------|---------------------------|------------------------||
G||---------------------------|--5------------------------|---------------------------|-----------------7-4----||
D||--3------------------------|--5------------------------|--4------------------------|--5------------------5--||
A||--3------------------------|--3--33333333333333333333--|--4------------------------|--5---------------------||
E||--1--11111111111111111111--|---------------------------|--2--22222222222222222222--|--3--3333333333---------||

Verse 6

e||---------------------------|---------------------------|---------------------------|-------------------||
B||---------------------------|---------------------------|---------------------------|-------------------||
G||--5------------------------|---------------------------|--8------------------------|--7----7-7--5------||
D||--5------------------------|--5------------------------|--8------------------------|-----8--------8----||
A||--3--33333333333333333333--|--5------------------------|--6--66666666666666666666--|----------------8--||
E||---------------------------|--3--33333333333333333333--|---------------------------|-------------------||

e||---------------------------|---------------------------|---------------------------||
B||---------------------------|---------------------------|---------------------------||
G||---------------------------|--5------------------------|---------------------------||
D||--3------------------------|--5------------------------|--4------------------------||
A||--3------------------------|--3--33333333333333333333--|--4------------------------||
E||--1--11111111111111111111--|---------------------------|--2--22222222222222222222--||

Pre-Chorus

e||-----|---------|-----|---------||    ||-----||
B||-----|---------|-----|---------||    ||-----||
G||--5--|---------|--5--|--6------|| x2 ||--5--||
D||--5--|--6---3--|--5--|--6---8--||    ||--5--||
A||--3--|--6---3--|--3--|--4---8--||    ||--3--||
E||-----|--4---1--|-----|------6--||    ||-----||

Chorus

e||-----|-----|-----|-----||-----|-----|-----|-----||
B||-----|-----|-----|-----||-----|-----|-----|-----||
G||--6--|--8--|-----|--5--||--6--|-----|-----|-----||
D||--6--|--8--|--3--|--5--||--6--|--8--|--6--|--6--||
A||--4--|--6--|--3--|--3--||--4--|--8--|--6--|--6--||
E||-----|-----|--1--|-----||-----|--6--|--4--|--4--||

e||-----|-----|-----|-----||-----|-----|-----|-----||
B||-----|-----|-----|-----||-----|-----|-----|-----||
G||-----|--8--|-----|--5--||--6--|--8--|-----|-----||
D||--6--|--8--|--3--|--5--||--6--|--8--|--6--|--6--||
A||--6--|--6--|--3--|--3--||--4--|--6--|--6--|--6--||
E||--4--|-----|--1--|-----||-----|-----|--4--|--4--||

e||-----|-----|-----|-----||-----|-----|-----|-----||
B||-----|-----|-----|-----||-----|-----|-----|-----||
G||--6--|--8--|-----|--5--||--6--|-----|-----|-----||
D||--6--|--8--|--3--|--5--||--6--|--8--|--6--|--6--||
A||--4--|--6--|--3--|--3--||--4--|--8--|--6--|--6--||
E||-----|-----|--1--|-----||-----|--6--|--4--|--4--||

e||-----|-----|-----|-----||-----|-----|-----|-----||
B||-----|-----|-----|-----||-----|-----|-----|-----||
G||-----|--8--|-----|--5--||--6--|--8--|-----|-----||
D||--6--|--8--|--3--|--5--||--6--|--8--|--6--|--6--||
A||--6--|--6--|--3--|--3--||--4--|--6--|--6--|--6--||
E||--4--|-----|--1--|-----||-----|-----|--4--|--4--||
comments
print report bad tab
3 comments total.
-1 reply
dragon32 wrote on June 5 2008, 04:42 pm

not that bad i liek it

-1 reply
dragon32 wrote on June 5 2008, 04:44 pm

yea but fix the begginin looks bad

0 reply
zeekeee wrote on January 3 2012, 02:35 pm

The verse are palm muted..

I want to post or [tab]
guest
You may want to rate the tab now too:
select rating
Please do not post tabs as comments. Select "correction" instead!