Oops, an error
Loading. Please wait.

Emerald Sword Tab

ver4
ver4

Intro

Whole song

More versions @911Tabs.com
2,347 views 1 this week
no commentswrite comment
1 2 3 4 5
please rate
add to favorites launch autoscroll
font size
0
reset
Autoscroll
+/-
esc
set tempo
stop
Contributor
Difficulty
advanced
WARNING: You are trying to view
                                    content from Ultimate-Guitar.com
                                    in an unauthorized application,
                                    which is prohibited.

                                    Please use an official Ultimate
                                    Guitar Tabs application for iPhone,
                                    iPad or Android to access legitimate
                                    chords, guitar, bass, and drum tabs
                                    from Ultimate-Guitar.com database.

                                    Type "ultimate guitar tabs" in Apple
                                    App Store's or Android Market's
                                    search to find the application.
Order of the tab:
Whole lead guitar 1 tab
Whole lead guitar 2 tab





LEAD GUITAR 1

     W                 
E||-------------------|
B||-------------------|
G||-------------------|
D||-------------------|
A||-------------------|
E||-------------------|


  Guitar 2 (after tab for this guitar) plays harmony.                               
  E                       S  S S  S S  S S  S Q    S  S 
--------------------------------------------------------
--0-----------------------7p-0-3p-0-7p-0-8p-0-5----8p-0-
--------------------------------------------------------
--------------------------------------------------------
--------------------------------------------------------
--------------------------------------------------------


  S  S Q    S  S S S  S S Q      
--------------------------------|
--7p-0------7p-0-5--------------|
-------7-----------7p-6-4-------|
--------------------------7~----|
--------------------------------|
--------------------------------|


  E  S  S S  S S  S S  S Q    S  S  
-----------------------------------|
--0--7p-0-3p-0-7p-0-8p-0-5----8p-0-|
-----------------------------------|
-----------------------------------|
-----------------------------------|
-----------------------------------|


  S S Q     E  E  E  Q     
--------------------------|
--7-0-------7-------------|
------7~----------6--4----|
---------------7----------|
--------------------------|
--------------------------|


  E  S  S S  S S  S S  S Q    S  S  
-----------------------------------|
--0--7p-0-3p-0-7p-0-8p-0-5----8p-0-|
-----------------------------------|
-----------------------------------|
-----------------------------------|
-----------------------------------|


  S  S Q    S  S S S  S S Q      
--------------------------------|
--7p-0------7p-0-5--------------|
-------7-----------7p-6-4-------|
--------------------------7~----|
--------------------------------|
--------------------------------|


  E  S  S S  S S  S S  S Q    S  S  
-----------------------------------|
--0--7p-0-3p-0-7p-0-8p-0-5----8p-0-|
-----------------------------------|
-----------------------------------|
-----------------------------------|
-----------------------------------|


  S S Q     E  E  E  Q     
--------------------------|
--7-0-------7-------------|
------7~----------6--4----|
---------------7----------|
--------------------------|
--------------------------|


    E  S  S S  S S  S S  S Q    S  S  
|------------------------------------|
|---0--7p-0-3p-0-7p-0-8p-0-5----8p-0-|
|*-----------------------------------|
|*-----------------------------------|
|------------------------------------|
|------------------------------------|


  S  S Q    S  S S S  S S Q      
--------------------------------|
--7p-0------7p-0-5--------------|
-------7-----------7p-6-4-------|
--------------------------7~----|
--------------------------------|
--------------------------------|


  E  S  S S  S S  S S  S Q    S  S  
-----------------------------------|
--0--7p-0-3p-0-7p-0-8p-0-5----8p-0-|
-----------------------------------|
-----------------------------------|
-----------------------------------|
-----------------------------------|


  S S Q     E  E  E  Q         S S Q     E  E  E  Q     
---------------------------||--------------------------|
--7-0-------7--------------||--7-0-------7-------------|
------7~----------6--4----*||------7~----------6--4----|
---------------7----------*||---------------7----------|
---------------------------||--------------------------|
---------------------------||--------------------------|


  S S S S E  E  Q    E  E     S S S S E  E  Q    E  E   
---------------------------|---------------------------|
---------------------------|---------------------------|
---------------------------|----------------7----7-----|
----------------3----3-----|----------------7----7-----|
--5-5-5-5-5--5--3----3-----|--3-3-3-3-3--3--5----5-----|
--3-3-3-3-3--3--1----1-----|--1-1-1-1-1--1-------------|


  S S S S E  E  Q    E  E     S S S S E  E  Q    E  E   
---------------------------|---------------------------|
---------------------------|---------------------------|
---------------------------|---------------------------|
----------------3----3-----|----------------5----5-----|
--5-5-5-5-5--5--3----3-----|--3-3-3-3-3--3--5----5-----|
--3-3-3-3-3--3--1----1-----|--1-1-1-1-1--1--3----3-----|


  S S S S E  E  Q    E  E     S S S S E  E  Q    E  E   
---------------------------|---------------------------|
---------------------------|---------------------------|
---------------------------|----------------7----7-----|
----------------3----3-----|----------------7----7-----|
--5-5-5-5-5--5--3----3-----|--3-3-3-3-3--3--5----5-----|
--3-3-3-3-3--3--1----1-----|--1-1-1-1-1--1-------------|


  S S S S E  E  Q    E  E     S S S S E  E  Q    E  E   
---------------------------|---------------------------|
---------------------------|---------------------------|
---------------------------|---------------------------|
----------------3----3-----|----------------5----5-----|
--5-5-5-5-5--5--3----3-----|--3-3-3-3-3--3--5----5-----|
--3-3-3-3-3--3--1----1-----|--1-1-1-1-1--1--3----3-----|


  E  S S S S S S S S S S S S S S  
---------------------------------|
---------------------------------|
---------------------------------|
--5------------------------------|
--3--3-3-3-3-3-3-3-3-3-3-3-3-3-3-|
---------------------------------|


  S S S S S S S S S S S S S S S S  
----------------------------------|
----------------------------------|
----------------------------------|
----------------------------------|
----------------------------------|
--3-3-3-3-3-3-3-3-3-3-3-3-3-3-3-3-|


  E  S S S S S S S S S S S S S S  
---------------------------------|
---------------------------------|
---------------------------------|
--8------------------------------|
--6--6-6-6-6-6-6-6-6-6-6-6-6-6-6-|
---------------------------------|


  E    E  E  E  E   E  E  E   
-----------------------------|
-----------------------------|
-----------------------------|
-------------8--8p--7--------|
----------8------------8--5--|
--6S--10---------------------|


  E  S S S S S S S S S S S S S S  
---------------------------------|
---------------------------------|
---------------------------------|
---------------------------------|
--3------------------------------|
--1--1-1-1-1-1-1-1-1-1-1-1-1-1-1-|


  S S S S S S S S S S S S S S S S  
----------------------------------|
----------------------------------|
----------------------------------|
----------------------------------|
--3-3-3-3-3-3-3-3-3-3-3-3-3-3-3-3-|
----------------------------------|


  S S S S S S S S S S S S S S S S  
----------------------------------|
----------------------------------|
----------------------------------|
----------------------------------|
----------------------------------|
--2-2-2-2-2-2-2-2-2-2-2-2-2-2-2-2-|


                  |----3----|     
  S S S S S S S S Q    Q    Q     
---------------------------------|
---------------------------------|
---------------------------------|
------------------5----3---------|
----------------------------5----|
--3-3-3-3-3-3-3-3----------------|


  E  S S S S S S S S S S S S S S  
---------------------------------|
---------------------------------|
---------------------------------|
--5------------------------------|
--3--3-3-3-3-3-3-3-3-3-3-3-3-3-3-|
---------------------------------|


  S S S S S S S S S S S S S S S S  
----------------------------------|
----------------------------------|
----------------------------------|
----------------------------------|
----------------------------------|
--3-3-3-3-3-3-3-3-3-3-3-3-3-3-3-3-|


  E  S S S S S S S S S S S S S S  
---------------------------------|
---------------------------------|
---------------------------------|
--8------------------------------|
--6--6-6-6-6-6-6-6-6-6-6-6-6-6-6-|
---------------------------------|


                w/Tremolo picking                
  E    E  E  E  S                 S S S S S S S  
------------------------------------------------|
------------------------------------------------|
------------------------------------------------|
-------------8--8-----------------7-5-----------|
----------8---------------------------8-6-5-----|
--6S--10------------------------------------8-6-|


  E  S S S S S S S S S S S S S S  
---------------------------------|
---------------------------------|
---------------------------------|
---------------------------------|
--3------------------------------|
--1--1-1-1-1-1-1-1-1-1-1-1-1-1-1-|


  S S S S S S S S S S S S S S S S  
----------------------------------|
----------------------------------|
----------------------------------|
----------------------------------|
--3-3-3-3-3-3-3-3-3-3-3-3-3-3-3-3-|
----------------------------------|


  S S S S S S S S S S E  E  E     W                 
-------------------------------|-------------------|
-------------------------------|-------------------|
-------------------------------|-------------------|
-------------------------------|--5----------------|
-------------------------3--6--|--5----------------|
--2-2-2-2-2-2-2-2-2-2-5--------|--3----------------|


  H        H           W                 
--------------------|-------------------|
--------------------|-------------------|
-----------8--------|--5----------------|
--6--------8--------|--5----------------|
--6--------6--------|--3----------------|
--4-----------------|-------------------|


  H        H           W                 
--------------------|-------------------|
--------------------|-------------------|
--6-----------------|--5----------------|
--6--------8--------|--5----------------|
--4--------8--------|--3----------------|
-----------6--------|-------------------|


  H        H           W                 
--------------------|-------------------|
--------------------|-------------------|
-----------8--------|--5----------------|
--6--------8--------|--5----------------|
--6--------6--------|--3----------------|
--4-----------------|-------------------|


  H        H           W                 
--------------------|-------------------|
--------------------|-------------------|
--6--------4--------|--5----------------|
--6--------3--------|--5----------------|
--4--------2--------|--3----------------|
--------------------|-------------------|


  Q     Q    H           H        Q    Q     
----------------------|---------------------|
----------------------|---------------------|
--5S----x-------------|--5--------L----7----|
--5S----x-------------|--5--------L----8----|
--3S----x-------------|--3--------L----5----|
----------------------|---------------------|


  H        Q    Q       W                 
---------------------|-------------------|
---------------------|-------------------|
--5--------L----4----|--5----------------|
--5--------L----3----|--5----------------|
--3--------L----2----|--3----------------|
---------------------|-------------------|


  W                   W                 
-------------------|-------------------|
-------------------|-------------------|
--5----------------|--7----------------|
--5----------------|--8----------------|
--3----------------|--5----------------|
-------------------|-------------------|


  H        Q    Q       E  S S S S S S S S S S S S S S  
---------------------|---------------------------------|
---------------------|---------------------------------|
--5------------------|---------------------------------|
--5--------8---------|--5------------------------------|
--3--------8---------|--3--3-3-3-3-3-3-3-3-3-3-3-3-3-3-|
-----------6---------|---------------------------------|


  S S S S S S S S S S S S S S S S  
----------------------------------|
----------------------------------|
----------------------------------|
----------------------------------|
----------------------------------|
--3-3-3-3-3-3-3-3-3-3-3-3-3-3-3-3-|


  E  S S S S S S S S S S S S S S  
---------------------------------|
---------------------------------|
---------------------------------|
--8------------------------------|
--6--6-6-6-6-6-6-6-6-6-6-6-6-6-6-|
---------------------------------|


  E    E  E  E  E   E  E  E   
-----------------------------|
-----------------------------|
-----------------------------|
-------------8--8p--7--------|
----------8------------8--5--|
--6S--10---------------------|


  E  S S S S S S S S S S S S S S  
---------------------------------|
---------------------------------|
---------------------------------|
---------------------------------|
--3------------------------------|
--1--1-1-1-1-1-1-1-1-1-1-1-1-1-1-|


  S S S S S S S S S S S S S S S S  
----------------------------------|
----------------------------------|
----------------------------------|
----------------------------------|
--3-3-3-3-3-3-3-3-3-3-3-3-3-3-3-3-|
----------------------------------|


  S S S S S S S S S S S S S S S S  
----------------------------------|
----------------------------------|
----------------------------------|
----------------------------------|
----------------------------------|
--2-2-2-2-2-2-2-2-2-2-2-2-2-2-2-2-|


                  |----3----|     
  S S S S S S S S Q    Q    Q     
---------------------------------|
---------------------------------|
---------------------------------|
------------------5----3---------|
----------------------------5----|
--3-3-3-3-3-3-3-3----------------|


  E  S S S S S S S S S S S S S S  
---------------------------------|
---------------------------------|
---------------------------------|
--5------------------------------|
--3--3-3-3-3-3-3-3-3-3-3-3-3-3-3-|
---------------------------------|


  S S S S S S S S S S S S S S S S  
----------------------------------|
----------------------------------|
----------------------------------|
----------------------------------|
----------------------------------|
--3-3-3-3-3-3-3-3-3-3-3-3-3-3-3-3-|


  E  S S S S S S S S S S S S S S  
---------------------------------|
---------------------------------|
---------------------------------|
--8------------------------------|
--6--6-6-6-6-6-6-6-6-6-6-6-6-6-6-|
---------------------------------|


                w/Tremolo picking                
  E    E  E  E  S                 S S S S S S S  
------------------------------------------------|
------------------------------------------------|
------------------------------------------------|
-------------8--8-----------------7-5-----------|
----------8---------------------------8-6-5-----|
--6S--10------------------------------------8-6-|


  E  S S S S S S S S S S S S S S  
---------------------------------|
---------------------------------|
---------------------------------|
---------------------------------|
--3------------------------------|
--1--1-1-1-1-1-1-1-1-1-1-1-1-1-1-|


  S S S S S S S S S S S S S S S S  
----------------------------------|
----------------------------------|
----------------------------------|
----------------------------------|
--3-3-3-3-3-3-3-3-3-3-3-3-3-3-3-3-|
----------------------------------|


  S S S S S S S S S S E  E  E     W                 
-------------------------------|-------------------|
-------------------------------|-------------------|
-------------------------------|-------------------|
-------------------------------|--5----------------|
-------------------------3--6--|--5----------------|
--2-2-2-2-2-2-2-2-2-2-5--------|--3----------------|


  H        H           W                 
--------------------|-------------------|
--------------------|-------------------|
-----------8--------|--5----------------|
--6--------8--------|--5----------------|
--6--------6--------|--3----------------|
--4-----------------|-------------------|


  H        H           W                 
--------------------|-------------------|
--------------------|-------------------|
--6-----------------|--5----------------|
--6--------8--------|--5----------------|
--4--------8--------|--3----------------|
-----------6--------|-------------------|


  H        H           W                 
--------------------|-------------------|
--------------------|-------------------|
-----------8--------|--5----------------|
--6--------8--------|--5----------------|
--6--------6--------|--3----------------|
--4-----------------|-------------------|


  H        H           W                 
--------------------|-------------------|
--------------------|-------------------|
--6--------4--------|--5----------------|
--6--------3--------|--5----------------|
--4--------2--------|--3----------------|
--------------------|-------------------|


  W                   W                 
-------------------|-------------------|
-------------------|-------------------|
-------------------|-------------------|
-------------------|--6----------------|
-------------------|--6----------------|
-------------------|--4----------------|


  W                    W                 
-------------------|--------------------|
-------------------|--------------------|
--8----------------|--10----------------|
--8----------------|--10----------------|
--6----------------|---8----------------|
-------------------|--------------------|


  W                   W                 
-------------------|-------------------|
--4----------------|-------------------|
--5----------------|--6----------------|
--5----------------|--6----------------|
--3----------------|--4----------------|
-------------------|-------------------|


  W                   H        E  E  E  E   
-------------------|-----------------------|
-------------------|-----------------------|
--8----------------|-----------------------|
--8----------------|--6--------------------|
--6----------------|--6--------3-----------|
-------------------|--4-----------6--4--6--|


  W                   W                 
-------------------|-------------------|
-------------------|-------------------|
-------------------|-------------------|
--6----------------|--6----------------|
--6----------------|--6----------------|
--4----------------|--4----------------|


                       Let ring           
  W                    H        H         
-------------------|------------8--------|
-------------------|------------9--------|
--8----------------|--10-----------------|
--8----------------|--10-----------------|
--6----------------|---8-----------------|
-------------------|---------------------|


  W                   W                 
-------------------|-------------------|
--4----------------|-------------------|
--5----------------|--6----------------|
--5----------------|--6----------------|
--3----------------|--4----------------|
-------------------|-------------------|


  W                   W                 
-------------------|-------------------|
-------------------|-------------------|
--8----------------|--5----------------|
--8----------------|--6----------------|
--6----------------|--6----------------|
-------------------|--4----------------|


  W                    E   S  S  E   E   E   E   Q      
--4----------------|-----------------------------------|
--4----------------|-----------------------------------|
--5----------------|--10--10-10-10--12--13--12--10~----|
--6----------------|-----------------------------------|
-------------------|-----------------------------------|
-------------------|-----------------------------------|


   E   S  S  E   E   E   E   Q      
-----------------------------------|
-----------------------------------|
--13--13-13-13--15--17--15--13~----|
-----------------------------------|
-----------------------------------|
-----------------------------------|


   E   S  S  E   E   Q     Q      
---------------------------------|
--13--13-13-13--15--16----13~----|
---------------------------------|
---------------------------------|
---------------------------------|
---------------------------------|


   Q     Q      E   E   Q      
--13--------------------------|
--------15~----16--15--13~----|
------------------------------|
------------------------------|
------------------------------|
------------------------------|


   E   S  S  E   E   E   E   Q      
-----------------------------------|
-----------------------------------|
--10--10-10-10--12--13--12--10~----|
-----------------------------------|
-----------------------------------|
-----------------------------------|


   E   S  S  E   E   E   E   Q      
-----------------------------------|
-----------------------------------|
--13--13-13-13--15--17--15--13~----|
-----------------------------------|
-----------------------------------|
-----------------------------------|


   E   S  S  E   E   Q     Q      
---------------------------------|
--13--13-13-13--15--16----13~----|
---------------------------------|
---------------------------------|
---------------------------------|
---------------------------------|


   Q     Q     E   E   E   E   
--13----16----15--13----------|
----------------------16--15--|
------------------------------|
------------------------------|
------------------------------|
------------------------------|


   Guitar 3 plays harmony.                              
   E                       S  S  E   E   E   E   Q      
-------------------------------------------------------|
-------------------------------------------------------|
--10----------------------10-10-10--12--13--12--10~----|
-------------------------------------------------------|
-------------------------------------------------------|
-------------------------------------------------------|


   E   S  S  E   E   E   E   Q      
-----------------------------------|
-----------------------------------|
--13--13-13-13--15--17--15--13~----|
-----------------------------------|
-----------------------------------|
-----------------------------------|


   E   S  S  E   E   Q     Q      
---------------------------------|
--13--13-13-13--15--16----13~----|
---------------------------------|
---------------------------------|
---------------------------------|
---------------------------------|


   Q     Q      E   E   Q      
--13--------------------------|
--------15~----16--15--13~----|
------------------------------|
------------------------------|
------------------------------|
------------------------------|


   E   S  S  E   E   E   E   Q      
-----------------------------------|
-----------------------------------|
--10--10-10-10--12--13--12--10~----|
-----------------------------------|
-----------------------------------|
-----------------------------------|


   E   S  S  E   E   E   E   Q      
-----------------------------------|
-----------------------------------|
--13--13-13-13--15--17--15--13~----|
-----------------------------------|
-----------------------------------|
-----------------------------------|


   E   S  S  E   E   Q     Q      
---------------------------------|
--13--13-13-13--15--16----13~----|
---------------------------------|
---------------------------------|
---------------------------------|
---------------------------------|


   Q     Q     E   E   E   E   
--13----16----15--13----------|
----------------------16--15--|
------------------------------|
------------------------------|
------------------------------|
------------------------------|


   E   E   E   E   Q     Q      
--15----------15--15-----------|
------16--18------------16~----|
-------------------------------|
-------------------------------|
-------------------------------|
-------------------------------|


   E   E   E   E   H          
--16--15--16--18--16~--------|
-----------------------------|
-----------------------------|
-----------------------------|
-----------------------------|
-----------------------------|


   E   E   E   E   Q     Q      
--15----------15--15-----------|
------16--18------------16~----|
-------------------------------|
-------------------------------|
-------------------------------|
-------------------------------|


   E   E   E   E   E   E   E   E   
--15--14--15--16--15--13----------|
--------------------------16--15--|
----------------------------------|
----------------------------------|
----------------------------------|
----------------------------------|


   E   E   E   E   Q     Q      
--15----------15--15-----------|
------16--18------------16~----|
-------------------------------|
-------------------------------|
-------------------------------|
-------------------------------|


   E   E   E   E   Q      E   E   
--16--15--16--18--20~----18--16--|
---------------------------------|
---------------------------------|
---------------------------------|
---------------------------------|
---------------------------------|


   Q     E   E   S   S   E   E   E   
--15----16--15--13h-15p-13----------|
----------------------------16--15--|
------------------------------------|
------------------------------------|
------------------------------------|
------------------------------------|


   Trill                                                
   S     S   S   S   S   S   S   S   S   S   S   S   S  
--------------------------------------------------------
--------------------------------------------------------
--16h---17p-16h-17p-16h-17p-16h-17p-16h-17p-16h-17p-16h-
--------------------------------------------------------
--------------------------------------------------------
--------------------------------------------------------


   Guitar 3 plays harmony.                          
   E                       E   E   E   Q     Q      
--15------------------------------15--15-----------|
--------------------------16--18------------16~----|
---------------------------------------------------|
---------------------------------------------------|
---------------------------------------------------|
---------------------------------------------------|


   E   E   E   E   H          
--16--15--16--18--16~--------|
-----------------------------|
-----------------------------|
-----------------------------|
-----------------------------|
-----------------------------|


   E   E   E   E   Q     Q      
--15----------15--15-----------|
------16--18------------16~----|
-------------------------------|
-------------------------------|
-------------------------------|
-------------------------------|


   E   E   E   E   E   E   E   E   
--15--14--15--16--15--13----------|
--------------------------16--15--|
----------------------------------|
----------------------------------|
----------------------------------|
----------------------------------|


   E   E   E   E   Q     Q      
--15----------15--15-----------|
------16--18------------16~----|
-------------------------------|
-------------------------------|
-------------------------------|
-------------------------------|


   E   E   E   E   Q      E   E   
--16--15--16--18--20~----18--16--|
---------------------------------|
---------------------------------|
---------------------------------|
---------------------------------|
---------------------------------|


   Q     E   E   S   S   E   E   E   
--15----16--15--13h-15p-13----------|
----------------------------16--15--|
------------------------------------|
------------------------------------|
------------------------------------|
------------------------------------|


   Trill                                                
   S     S   S   S   S   S   S   S   S   S   S   S   S  
--------------------------------------------------------
--------------------------------------------------------
--16h---17p-16h-17p-16h-17p-16h-17p-16h-17p-16h-17p-16h-
--------------------------------------------------------
--------------------------------------------------------
--------------------------------------------------------


  Q    Q     Q    Q       Q    Q    Q    Q     
-----------------------|----------------------|
-----------------------|----------------------|
--5---------10---------|------------5---------|
--5---------10---------|--5---------5---------|
--3----------8---------|--5---------3---------|
-----------------------|--3-------------------|


  Q    Q     Q    Q       Q    Q    H         
-----------------------|---------------------|
-----------------------|---------------------|
--5---------10---------|--4---------5--------|
--5---------10---------|--3---------5--------|
--3----------8---------|--2---------3--------|
-----------------------|---------------------|


  W.                  E  S S S S S S S S S S S S S S  
-------------------|---------------------------------|
-------------------|---------------------------------|
--4----------------|---------------------------------|
--3----------------|--5------------------------------|
--2----------------|--3--3-3-3-3-3-3-3-3-3-3-3-3-3-3-|
-------------------|---------------------------------|


  S S S S S S S S S S S S S S S S  
----------------------------------|
----------------------------------|
----------------------------------|
----------------------------------|
----------------------------------|
--3-3-3-3-3-3-3-3-3-3-3-3-3-3-3-3-|


  E  S S S S S S S S S S S S S S  
---------------------------------|
---------------------------------|
---------------------------------|
--8------------------------------|
--6--6-6-6-6-6-6-6-6-6-6-6-6-6-6-|
---------------------------------|


  E    E  E  E  E   E  E  E   
-----------------------------|
-----------------------------|
-----------------------------|
-------------8--8p--7--------|
----------8------------8--5--|
--6S--10---------------------|


  E  S S S S S S S S S S S S S S  
---------------------------------|
---------------------------------|
---------------------------------|
---------------------------------|
--3------------------------------|
--1--1-1-1-1-1-1-1-1-1-1-1-1-1-1-|


  S S S S S S S S S S S S S S S S  
----------------------------------|
----------------------------------|
----------------------------------|
----------------------------------|
--3-3-3-3-3-3-3-3-3-3-3-3-3-3-3-3-|
----------------------------------|


  S S S S S S S S S S S S S S S S  
----------------------------------|
----------------------------------|
----------------------------------|
----------------------------------|
----------------------------------|
--2-2-2-2-2-2-2-2-2-2-2-2-2-2-2-2-|


                  |----3----|     
  S S S S S S S S Q    Q    Q     
---------------------------------|
---------------------------------|
---------------------------------|
------------------5----3---------|
----------------------------5----|
--3-3-3-3-3-3-3-3----------------|


  E  S S S S S S S S S S S S S S  
---------------------------------|
---------------------------------|
---------------------------------|
--5------------------------------|
--3--3-3-3-3-3-3-3-3-3-3-3-3-3-3-|
---------------------------------|


  S S S S S S S S S S S S S S S S  
----------------------------------|
----------------------------------|
----------------------------------|
----------------------------------|
----------------------------------|
--3-3-3-3-3-3-3-3-3-3-3-3-3-3-3-3-|


  E  S S S S S S S S S S S S S S  
---------------------------------|
---------------------------------|
---------------------------------|
--8------------------------------|
--6--6-6-6-6-6-6-6-6-6-6-6-6-6-6-|
---------------------------------|


                w/Tremolo picking                
  E    E  E  E  S                 S S S S S S S  
------------------------------------------------|
------------------------------------------------|
------------------------------------------------|
-------------8--8-----------------7-5-----------|
----------8---------------------------8-6-5-----|
--6S--10------------------------------------8-6-|


  E  S S S S S S S S S S S S S S  
---------------------------------|
---------------------------------|
---------------------------------|
---------------------------------|
--3------------------------------|
--1--1-1-1-1-1-1-1-1-1-1-1-1-1-1-|


  S S S S S S S S S S S S S S S S  
----------------------------------|
----------------------------------|
----------------------------------|
----------------------------------|
--3-3-3-3-3-3-3-3-3-3-3-3-3-3-3-3-|
----------------------------------|


  S S S S S S S S S S E  E  E     W                 
-------------------------------|-------------------|
-------------------------------|-------------------|
-------------------------------|-------------------|
-------------------------------|--5----------------|
-------------------------3--6--|--5----------------|
--2-2-2-2-2-2-2-2-2-2-5--------|--3----------------|


  H        H           W                 
--------------------|-------------------|
--------------------|-------------------|
-----------8--------|--5----------------|
--6--------8--------|--5----------------|
--6--------6--------|--3----------------|
--4-----------------|-------------------|


  H        H           W                 
--------------------|-------------------|
--------------------|-------------------|
--6-----------------|--5----------------|
--6--------8--------|--5----------------|
--4--------8--------|--3----------------|
-----------6--------|-------------------|


  H        H           W                 
--------------------|-------------------|
--------------------|-------------------|
-----------8--------|--5----------------|
--6--------8--------|--5----------------|
--6--------6--------|--3----------------|
--4-----------------|-------------------|


  H        H           W                 
--------------------|-------------------|
--------------------|-------------------|
--6--------4--------|--5----------------|
--6--------3--------|--5----------------|
--4--------2--------|--3----------------|
--------------------|-------------------|


  W                   W                 
-------------------|-------------------|
-------------------|-------------------|
-------------------|-------------------|
-------------------|--6----------------|
-------------------|--6----------------|
-------------------|--4----------------|


  W                    W                 
-------------------|--------------------|
-------------------|--------------------|
--8----------------|--10----------------|
--8----------------|--10----------------|
--6----------------|---8----------------|
-------------------|--------------------|


  W                   W                 
-------------------|-------------------|
--4----------------|-------------------|
--5----------------|--6----------------|
--5----------------|--6----------------|
--3----------------|--4----------------|
-------------------|-------------------|


  W                   H        E  E  E  E   
-------------------|-----------------------|
-------------------|-----------------------|
--8----------------|-----------------------|
--8----------------|--6--------------------|
--6----------------|--6--------3-----------|
-------------------|--4-----------6--4--6--|


  W                   W                 
-------------------|-------------------|
-------------------|-------------------|
-------------------|-------------------|
--6----------------|--6----------------|
--6----------------|--6----------------|
--4----------------|--4----------------|


                       Let ring           
  W                    H        H         
-------------------|------------8--------|
-------------------|------------9--------|
--8----------------|--10-----------------|
--8----------------|--10-----------------|
--6----------------|---8-----------------|
-------------------|---------------------|


  W                   W                 
-------------------|-------------------|
--4----------------|-------------------|
--5----------------|--6----------------|
--5----------------|--6----------------|
--3----------------|--4----------------|
-------------------|-------------------|


  W                   W                 
-------------------|-------------------|
-------------------|-------------------|
--8----------------|--5----------------|
--8----------------|--6----------------|
--6----------------|--6----------------|
-------------------|--4----------------|


  W                   W                 
--4----------------|-------------------|
--4----------------|-------------------|
--5----------------|-------------------|
--6----------------|--6----------------|
-------------------|--6----------------|
-------------------|--4----------------|


  W                    W                 
-------------------|--------------------|
-------------------|--------------------|
--8----------------|--10----------------|
--8----------------|--10----------------|
--6----------------|---8----------------|
-------------------|--------------------|


  W                   W                 
-------------------|-------------------|
--4----------------|-------------------|
--5----------------|--6----------------|
--5----------------|--6----------------|
--3----------------|--4----------------|
-------------------|-------------------|


  W                   H        E  E  E  E   
-------------------|-----------------------|
-------------------|-----------------------|
--8----------------|-----------------------|
--8----------------|--6--------------------|
--6----------------|--6--------3-----------|
-------------------|--4-----------6--4--6--|


  W                   W                 
-------------------|-------------------|
-------------------|-------------------|
-------------------|-------------------|
--6----------------|--6----------------|
--6----------------|--6----------------|
--4----------------|--4----------------|


                       Let ring           
  W                    H        H         
-------------------|------------8--------|
-------------------|------------9--------|
--8----------------|--10-----------------|
--8----------------|--10-----------------|
--6----------------|---8-----------------|
-------------------|---------------------|


  W                   W                 
-------------------|-------------------|
--4----------------|-------------------|
--5----------------|--6----------------|
--5----------------|--6----------------|
--3----------------|--4----------------|
-------------------|-------------------|


  W                   W                 
-------------------|-------------------|
-------------------|-------------------|
--8----------------|--5----------------|
--8----------------|--6----------------|
--6----------------|--6----------------|
-------------------|--4----------------|


  H        H          
--4-----------------||
--4-----------------||
--5-----------------||
--6-----------------||
--6-----------------||
--4-----------------||















LEAD GUITAR 2



     W                 
E||-------------------|
B||-------------------|
G||-------------------|
D||-------------------|
A||-------------------|
E||-------------------|

Harmony with Lead Guitar 1
  E  S  S S  S S  S S  S Q    S  S  
-----------------------------------|
-----------------------------------|
--0--7p-0-4p-0-7p-0-9p-0-6----9p-0-|
-----------------------------------|
-----------------------------------|
-----------------------------------|


  S  S Q    S  S S S  S  S  Q      
----------------------------------|
----------------------------------|
--7p-0------7p-0-6----------------|
-------9-----------9p-8-----------|
------------------------10p-9~----|
----------------------------------|


  E  S  S S  S S  S S  S Q    S  S  
-----------------------------------|
-----------------------------------|
--0--7p-0-4p-0-7p-0-9p-0-6----9p-0-|
-----------------------------------|
-----------------------------------|
-----------------------------------|


  S  S Q     E  E  E  Q     
---------------------------|
---------------------------|
--7p-0-------7-------------|
-------9~----------7-------|
----------------9-----9----|
---------------------------|


  E  S  S S  S S  S S  S Q    S  S  
-----------------------------------|
-----------------------------------|
--0--7p-0-4p-0-7p-0-9p-0-6----9p-0-|
-----------------------------------|
-----------------------------------|
-----------------------------------|


  S  S Q    S  S S S  S  S  Q      
----------------------------------|
----------------------------------|
--7p-0------7p-0-6----------------|
-------9-----------9p-8-----------|
------------------------10p-9~----|
----------------------------------|


  E  S  S S  S S  S S  S Q    S  S  
-----------------------------------|
-----------------------------------|
--0--7p-0-4p-0-7p-0-9p-0-6----9p-0-|
-----------------------------------|
-----------------------------------|
-----------------------------------|


  S  S Q     E  E  E  Q     
---------------------------|
---------------------------|
--7p-0-------7-------------|
-------9~----------7-------|
----------------9-----9----|
---------------------------|


    E  S  S S  S S  S S  S Q    S  S  
|------------------------------------|
|------------------------------------|
|*--0--7p-0-4p-0-7p-0-9p-0-6----9p-0-|
|*-----------------------------------|
|------------------------------------|
|------------------------------------|


  S  S Q    S  S S S  S  S  Q      
----------------------------------|
----------------------------------|
--7p-0------7p-0-6----------------|
-------9-----------9p-8-----------|
------------------------10p-9~----|
----------------------------------|


  E  S  S S  S S  S S  S Q    S  S  
-----------------------------------|
-----------------------------------|
--0--7p-0-4p-0-7p-0-9p-0-6----9p-0-|
-----------------------------------|
-----------------------------------|
-----------------------------------|


  S  S Q     E  E  E  Q       
----------------------------||
----------------------------||
--7p-0-------7-------------*||
-------9~----------7-------*||
----------------9-----9-----||
----------------------------||


  S  S Q     E  E  E  Q                             
---------------------------|-------|-------|-------|
---------------------------|-------|-------|-------|
--7p-0-------7-------------|-------|-------|-------|
-------9~----------7-------|-------|-------|-------|
----------------9-----9----|-------|-------|-------|
---------------------------|-------|-------|-------|


-------|-------|-------|-------|-------|-------|-------|
-------|-------|-------|-------|-------|-------|-------|
-------|-------|-------|-------|-------|-------|-------|
-------|-------|-------|-------|-------|-------|-------|
-------|-------|-------|-------|-------|-------|-------|
-------|-------|-------|-------|-------|-------|-------|


           E  E  E  E  E   E  E  E                     
-------|----------------------------|-----|-----|-----|
-------|----------------------------|-----|-----|-----|
-------|------------7--7p--5--------|-----|-----|-----|
-------|---------8------------7-----|-----|-----|-----|
-------|------8------------------8--|-----|-----|-----|
-------|--10------------------------|-----|-----|-----|


           |----3----|                             
  H        Q    Q    Q                             
--------------------------|-------|-------|-------|
--------------------------|-------|-------|-------|
-----------7----5---------|-------|-------|-------|
---------------------5----|-------|-------|-------|
--------------------------|-------|-------|-------|
--------------------------|-------|-------|-------|


   E  E  E  E  S S S S S S S S                          
-------------------------------|-----|-----|-----|-----|
-------------------------------|-----|-----|-----|-----|
------------7--7-5-3-----------|-----|-----|-----|-----|
---------8-----------7-5-3-----|-----|-----|-----|-----|
------8--------------------6-5-|-----|-----|-----|-----|
--10---------------------------|-----|-----|-----|-----|


-----|-----|-----|-----|-----|-----|-----|-----|-----|
-----|-----|-----|-----|-----|-----|-----|-----|-----|
-----|-----|-----|-----|-----|-----|-----|-----|-----|
-----|-----|-----|-----|-----|-----|-----|-----|-----|
-----|-----|-----|-----|-----|-----|-----|-----|-----|
-----|-----|-----|-----|-----|-----|-----|-----|-----|


-----|-----|-----|-----|-----|-----|-------|-------|
-----|-----|-----|-----|-----|-----|-------|-------|
-----|-----|-----|-----|-----|-----|-------|-------|
-----|-----|-----|-----|-----|-----|-------|-------|
-----|-----|-----|-----|-----|-----|-------|-------|
-----|-----|-----|-----|-----|-----|-------|-------|


           E  E  E  E  E   E  E  E                     
-------|----------------------------|-----|-----|-----|
-------|----------------------------|-----|-----|-----|
-------|------------7--7p--5--------|-----|-----|-----|
-------|---------8------------7-----|-----|-----|-----|
-------|------8------------------8--|-----|-----|-----|
-------|--10------------------------|-----|-----|-----|


           |----3----|                             
  H        Q    Q    Q                             
--------------------------|-------|-------|-------|
--------------------------|-------|-------|-------|
-----------7----5---------|-------|-------|-------|
---------------------5----|-------|-------|-------|
--------------------------|-------|-------|-------|
--------------------------|-------|-------|-------|


   E  E  E  E  S S S S S S S S                          
-------------------------------|-----|-----|-----|-----|
-------------------------------|-----|-----|-----|-----|
------------7--7-5-3-----------|-----|-----|-----|-----|
---------8-----------7-5-3-----|-----|-----|-----|-----|
------8--------------------6-5-|-----|-----|-----|-----|
--10---------------------------|-----|-----|-----|-----|


-----|-----|-----|-----|-----|-----|-----|-----|-----|
-----|-----|-----|-----|-----|-----|-----|-----|-----|
-----|-----|-----|-----|-----|-----|-----|-----|-----|
-----|-----|-----|-----|-----|-----|-----|-----|-----|
-----|-----|-----|-----|-----|-----|-----|-----|-----|
-----|-----|-----|-----|-----|-----|-----|-----|-----|


-----|-----|-----|-----|-----|-----|-----|-----|-----|
-----|-----|-----|-----|-----|-----|-----|-----|-----|
-----|-----|-----|-----|-----|-----|-----|-----|-----|
-----|-----|-----|-----|-----|-----|-----|-----|-----|
-----|-----|-----|-----|-----|-----|-----|-----|-----|
-----|-----|-----|-----|-----|-----|-----|-----|-----|


-----|-----|-----|-----|-----|-----|-----|-----|-----|
-----|-----|-----|-----|-----|-----|-----|-----|-----|
-----|-----|-----|-----|-----|-----|-----|-----|-----|
-----|-----|-----|-----|-----|-----|-----|-----|-----|
-----|-----|-----|-----|-----|-----|-----|-----|-----|
-----|-----|-----|-----|-----|-----|-----|-----|-----|


                                         \1/       
                                H        H         
-----|-----|-----|-----|-----|--------------------|
-----|-----|-----|-----|-----|--------------------|
-----|-----|-----|-----|-----|--------------------|
-----|-----|-----|-----|-----|--------------------|
-----|-----|-----|-----|-----|-----------4--------|
-----|-----|-----|-----|-----|-----------4--------|


   E   S  S  E   E   E   E   Q      
-----------------------------------|
-----------------------------------|
--13--13-13-13--15--17--15--13~----|
-----------------------------------|
---L-------------------------------|
---L-------------------------------|


   E   S  S  E   E   E   E   Q      
-----------------------------------|
--13--13-13-13--15--16--15--13~----|
-----------------------------------|
-----------------------------------|
-----------------------------------|
-----------------------------------|


   E   S  S  E   E   Q     Q     
--11--11-11-11--13--15----11----|
--------------------------------|
--------------------------------|
--------------------------------|
--------------------------------|
--------------------------------|


   Q     Q     E   E   Q      
--16----------15--13---------|
--------18------------16~----|
-----------------------------|
-----------------------------|
-----------------------------|
-----------------------------|


   E   S  S  E   E   E   E   Q      
-----------------------------------|
-----------------------------------|
--13--13-13-13--15--17--15--13~----|
-----------------------------------|
-----------------------------------|
-----------------------------------|


   E   S  S  E   E   E   E   Q      
-----------------------------------|
--13--13-13-13--15--16--15--13~----|
-----------------------------------|
-----------------------------------|
-----------------------------------|
-----------------------------------|


   E   S  S  E   E   Q     Q     
--11--11-11-11--13--15----11----|
--------------------------------|
--------------------------------|
--------------------------------|
--------------------------------|
--------------------------------|


   Q     Q     E   E   E   E                           
--16----20----18--16--15------|-----|-----|-----|-----|
--------------------------18--|-----|-----|-----|-----|
------------------------------|-----|-----|-----|-----|
------------------------------|-----|-----|-----|-----|
------------------------------|-----|-----|-----|-----|
------------------------------|-----|-----|-----|-----|


                           E   E   E   E   Q     Q     
-----|-----|-----|-----|------------------------------|
-----|-----|-----|-----|--16----------16--16----13----|
-----|-----|-----|-----|------17--17------------------|
-----|-----|-----|-----|------------------------------|
-----|-----|-----|-----|------------------------------|
-----|-----|-----|-----|------------------------------|


   E   E   E   E   H          
-----------------------------|
--18--16--18--20--18~--------|
-----------------------------|
-----------------------------|
-----------------------------|
-----------------------------|


   E   E   E   E   Q     Q     
------------------------------|
--16----------16--16----13----|
------17--17------------------|
------------------------------|
------------------------------|
------------------------------|


   E   E   E   E   E   E   E   E   
----------------------------------|
--16--15--16--18--16--15----------|
--------------------------17--16--|
----------------------------------|
----------------------------------|
----------------------------------|


   E   E   E   E   Q     Q     
------------------------------|
--16----------16--16----13----|
------17--17------------------|
------------------------------|
------------------------------|
------------------------------|


   E   E   E   E   Q      E   E   
---------------------------------|
--18--16--18--20--21~----20--18--|
---------------------------------|
---------------------------------|
---------------------------------|
---------------------------------|


   Q     E   E   S   S   E   E   E   
------------------------------------|
--16----18--16--15h-16p-15----------|
----------------------------17--16--|
------------------------------------|
------------------------------------|
------------------------------------|


   Trill                                                
   S     S   S   S   S   S   S   S   S   S   S   S   S  
--------------------------------------------------------
--------------------------------------------------------
--------------------------------------------------------
--17h---18p-17h-18p-17h-18p-17h-18p-17h-18p-17h-18p-17h-
--------------------------------------------------------
--------------------------------------------------------


----|----|----|----|----|-------|-------|-------|
----|----|----|----|----|-------|-------|-------|
----|----|----|----|----|-------|-------|-------|
----|----|----|----|----|-------|-------|-------|
----|----|----|----|----|-------|-------|-------|
----|----|----|----|----|-------|-------|-------|


   E  E  E  E  E   E  E  E                     
----------------------------|-----|-----|-----|
----------------------------|-----|-----|-----|
------------7--7p--5--------|-----|-----|-----|
---------8------------7-----|-----|-----|-----|
------8------------------8--|-----|-----|-----|
--10------------------------|-----|-----|-----|


           |----3----|                             
  H        Q    Q    Q                             
--------------------------|-------|-------|-------|
--------------------------|-------|-------|-------|
-----------7----5---------|-------|-------|-------|
---------------------5----|-------|-------|-------|
--------------------------|-------|-------|-------|
--------------------------|-------|-------|-------|


   E  E  E  E  S S S S S S S S                          
-------------------------------|-----|-----|-----|-----|
-------------------------------|-----|-----|-----|-----|
------------7--7-5-3-----------|-----|-----|-----|-----|
---------8-----------7-5-3-----|-----|-----|-----|-----|
------8--------------------6-5-|-----|-----|-----|-----|
--10---------------------------|-----|-----|-----|-----|


-----|-----|-----|-----|-----|-----|-----|-----|-----|
-----|-----|-----|-----|-----|-----|-----|-----|-----|
-----|-----|-----|-----|-----|-----|-----|-----|-----|
-----|-----|-----|-----|-----|-----|-----|-----|-----|
-----|-----|-----|-----|-----|-----|-----|-----|-----|
-----|-----|-----|-----|-----|-----|-----|-----|-----|


-----|-----|-----|-----|-----|-----|-----|-----|-----|
-----|-----|-----|-----|-----|-----|-----|-----|-----|
-----|-----|-----|-----|-----|-----|-----|-----|-----|
-----|-----|-----|-----|-----|-----|-----|-----|-----|
-----|-----|-----|-----|-----|-----|-----|-----|-----|
-----|-----|-----|-----|-----|-----|-----|-----|-----|


-----|-----|-----|-----|-----|-----|-----|-----|-----|
-----|-----|-----|-----|-----|-----|-----|-----|-----|
-----|-----|-----|-----|-----|-----|-----|-----|-----|
-----|-----|-----|-----|-----|-----|-----|-----|-----|
-----|-----|-----|-----|-----|-----|-----|-----|-----|
-----|-----|-----|-----|-----|-----|-----|-----|-----|


-----|-----|-----|-----|-----|-----|-----|-----|-----|
-----|-----|-----|-----|-----|-----|-----|-----|-----|
-----|-----|-----|-----|-----|-----|-----|-----|-----|
-----|-----|-----|-----|-----|-----|-----|-----|-----|
-----|-----|-----|-----|-----|-----|-----|-----|-----|
-----|-----|-----|-----|-----|-----|-----|-----|-----|


-----|-----|-----|-----|-----||
-----|-----|-----|-----|-----||
-----|-----|-----|-----|-----||
-----|-----|-----|-----|-----||
-----|-----|-----|-----|-----||
-----|-----|-----|-----|-----||




comments
We did not receive enough feedback on this tab! Please rate:
print report bad tab
1 2 3 4 5
I want to post or [tab]
guest
You may want to rate the tab now too:
select rating
Please do not post tabs as comments. Select "correction" instead!