Oops, an error
Loading. Please wait.

Gargoyles Angels Of Darkness Tab

21,257 views 81 this week
1 commentread comment
1 2 3 4 5
excellent!
x 7
add to favorites launch autoscroll
font size
0
reset
Autoscroll
+/-
esc
set tempo
stop
Contributor
Difficulty
intermediate
WARNING: You are trying to view
                                    content from Ultimate-Guitar.com
                                    in an unauthorized application,
                                    which is prohibited.

                                    Please use an official Ultimate
                                    Guitar Tabs application for iPhone,
                                    iPad or Android to access legitimate
                                    chords, guitar, bass, and drum tabs
                                    from Ultimate-Guitar.com database.

                                    Type "ultimate guitar tabs" in Apple
                                    App Store's or Android Market's
                                    search to find the application.
*************************************************************************************
*RHAPSODY – GARGOYLES, ANGELS OF DARKNESS (From the Album: POWER OF THE DRAGONFLAME)*
*************************************************************************************
*Part I: Angeli di Pietra Misctica*
***********************************
  1								    5
E|--------------|--------|---------------|----------------------|------------------|-------|
B|---0~-1p0---0-|--------|---------------|----------------------|-0-h1p0---0-1-1/3-|-1-0---|
G|----------2---|------0-|---0---0---0---|-0-----0-----0-----0~-|--------2---------|-------|
D|--------------|----4---|-4---4---4---4-|----4-----4-----4-----|------------------|-------|
A|--------------|--------|---------------|----------------------|------------------|-------|
E|--------------|-0~~----|---------------|----------------------|------------------|-----0-|
							  10
E|-------------------|-------------------|-------------|---2/3\|-2-0-2---------0---|-------|
B|-------------------|-------0-----------|-0-----------|-------|-------3-1\0-----0-|-------|
G|-----0---0---0---0-|---0-------0---0---|-----0---0~--|-------|-------------2-----|-2/4~--|
D|--4----4---4---4---|-4---4---4---4---4-|---4---4-----|-------|-------------------|-------|
A|-------------------|-------------------|-------------|-------|-------------------|-------|
E|-------------------|-------------------|-------------|-0-----|-------------------|-------|
										  15
E-0-----0-|-----0-----0-----0-----0-----0---|--0-----0-----0-----0-----0-----|0-----0------|
B---0-----|-0-----0-----0-----0-----0-----0-|----0-----0-----0-----0-----0---|--0-----0----|
G-----4---|---4-----4-----4-----4-----4-----|2-----0-------------------------|-------------|
D---------|---------------------------------|------------4-----2-----0-------|-------------|
A---------|---------------------------------|------------------------------3-|----2-----0--|
E---------|---------------------------------|--------------------------------|-------------|
							    20
E-0-----0-----0-----|-0-|--------|-0---0---0---0---|-0~-|---------0---------------------|
B---0-----0-----0---|-0-|--------|-1p0-1p0-1p0-1p0-|-0~-|-------1---3--1h3p1p0----------|
G-------------------|---|--0-----|-2---2---2---2---|-0~-|---0h2----------------2-0/2\0--|
D-------------------|---|----2---|-2---2---2---2---|-2~-|-3-----------------------------|
A-------------------|---|--------|-0---0---0---0---|-2~-|-------------------------------|
E-----3-----2-----0-|---|------0-|-----------------|-0~-|-------------------------------|
										     25
E-------------|----|--------------------------|----0----|-0-------0-------0-----|-0------|
B-------------|----|--0h1~-3~-1-0h1p0---------|---------|----0-------0------0---|---0----|
G-------------|----|------------------2-0-2—2/|/4-------|-------4-------4-----4-|-----4--|
D-3-2h3p2-0-2-|----|--------------------------|---------|-----------------------|--------|
A-------------|----|--------------------------|---------|-----------------------|--------|
E-------------|-0~-|--------------------------|-------0-|-----------------------|--------|
								      30
E-0-----------0------|-0---0--0--0--0—-0-|--------|---0~-|--------|----------------------|
B----0-----0-----0/5-|-----0--0--0--0—-0-|--------|------|----0~--|-----0----------------|
G-------4--------4/5-|-----4--4--4--4--4-|-----0~-|---0~-|----0~--|----0---0-------------|
D--------------------|-------------------|-----4~-|---4~-|--------|---4-------4----------|
A--------------------|-------------------|--------|------|--------|--2-----------2-------|
E--------------------|-------------------|-0~-----|0~----|-0~-----|-0---------------3p2--|

E|---------------0---|-----------------------------|--------------------------|
B|-----------0--0--0-|-----------------------------|----5---5/7-8-7\5---------|
G|-------0--0--0--0--|---0-----------------------5-|--5---5------------7-5\4~-|
D|---2-2---2-----2---|-2------2-----2------7---7---|7-------------------------|
A|--2-2-------------2|—------2----2------7---7-----|--------------------------|
E|-0-----------------|-----3----2----0/5-----------|--------------------------|
						 35
E|-------------------7-7--9-/11--7--9--11--12~|------------------------|---------------12-|-|
B|---------------7--7-------------------------|------------------0-----|------------12----|-|
G|-----------8--8--8--------------------------|------------0---0-------|-0---0---12-------|-|
D|-------9--9--9------------------------------|------4---4---4-------4-|---4--------------|-|
A|------9--9----------------------------------|----2---2-----------2---|------------------|-|
E|-\7--7--------------------------------------|-0~---------------------|-------0~---------|-|
									  40
E|------0-----0-----0-----0---0---0-|-----0-----0-----0-----0---0---0-|-----0-----0-----0-|
B|----0-----0-----0-----0-----------|---0-----0-----0-----0-----------|---0-----0-----0---|
G|--------4-----2-----0-------------|-------4-----2-----4-----5---4---|-------4-----2-----|
D|--2-----------------------1---4---|-2-------------------------------|-2-----------------|
A|----------------------------------|---------------------------------|-------------------|
E|----------------------------------|---------------------------------|-------------------|

                                                   Acoustic Guitar 1
E-----0---0---0-|------0-----0-----0-----0---0---0--|-------0-----0-----0-----0---0-|
B---0-----------|----0-----0-----0-----0---3---1----|-----0-----0-----0-----0-------|
G-0-------------|--------4-----2-----4--------------|---------4-----2-----0---------|
D-------1---4---|-2---------------------------------|---2-----------------------1---|
A---------------|-----------------------------------|-------------------------------|
E---------------|-----------------------------------|-------------------------------|
                                                    | Acoustic Guitar 2:
                                                   E|---7-7\------------------------|
                                                   B|---8-8\------------------------|
                                                   G|---9-9\------------------------|
                                                   D|---9-9\--5~----4~--------------|
                                                   A|---7-7\--------------7~----6~--|
                                                   E|-------------------------------|

E|----0-|-----0-----0-----0-----0---0---0------|-----0------0-----0-----0---0---0-------0-|
B|------|---0-----0-----0-----0----------------|---0------0-----0-----0---------------0---|
G|------|-------4-----2-----4-----5---4--------|--------4-----2-----0---------------------|
D|--4---|-2------------------------------------|-2------------------------1---4---\-2-----|
A|------|--------------------------------------|------------------------------------------|
E|------|--------------------------------------|------------------------------------------|
 |
E|------|----------------------------------7-7-|--7-7\------------------------------------|
B|------|----------------------------------8-8-|--8-8\------------------------------------|
G|------|----------------------------------9-9-|--9-9\------------------------------------|
D|------|-------5~----4~----5~----7~--5~-4-9-9-|--9-9\--5~----4~--------------------------|
A|--3~--|-2~-----------------------------------|--7-7\--------------7~----6~--3~----2~----|
E|------|--------------------------------------|------------------------------------------|


E|-----0-----0-----0---0---0-------0-----0-----0-----0---0---0------0-----0-----0-----|
B|---0-----0-----0---3-----------0-----0-----0-----0--------------0-----0-----0-----0-|
G|-4-----2-----4---------5-----------4-----2-----0--------------------4-----2-----4---|
D|-----------------------------2-----------------------1---4---\2---------------------|
A|------------------------------------------------------------------------------------|
E|------------------------------------------------------------------------------------|
 |
E|------------------7--7--7--7-7\-----------------------------------------------------|
B|------------------8--8--8--8-8\-----------------------------------------------------|
G|------------------9--9--9--9-9\-----------------------------------------------------|
D|-5~----4~----5~---9~-7~-9--9-9\--5~----4~-------------------------5~----4~----5~----|
A|------------------7--7--7--7-7\--------------7~----6~--3~---2~----------------------|
E|----------------------------------------------------------------------------1-------|

E|-0---0---0-----0-----0-----0-----0---0---0------0-----0-----0-----0---0---0--|
B|-------------0-----0-----0-----0--------------0-----0-----0-----0---3--------|
G|---5---4---------4-----2-----0--------------------4-----2-----4---------5----|
D|----------\2-----------------------1---4---\2--------------------------------|
A|-----------------------------------------------------------------------------|
E|-----------------------------------------------------------------------------|
 |
E|-----------7-7\----------------------------------------------------7-7--7~~--|
B|-----------8-8\----------------------------------------------------8-8--7~~--|
G|-----------9-9\----------------------------------------------------9-9--8~~--|
D|---7~--5~--9-9\--5~----4~-------------------------5~----4~----5~---9-7--9~~--|
A|-----------7-7\--------------7~----6~--3~---2~---------------------7-7--9~~--|
E|------------------------------------------------------------------------7~~--|

e|-----0-----0-----0-----0---0---0-|-----0-----0-----0-----0---0---0--|
D|---0-----0-----0-----0-----------|---0-----0-----0-----0------------|
G|-------4-----2-----0-------------|-------4-----2-----4-----5---4----|
B|-2-----------------------1---4---|-2--------------------------------|
A|---------------------------------|----------------------------------|
E|---------------------------------|----------------------------------|

e|-----0-----0-----0-----0---0----0-|-----0-----0-----0-----0---0---0--|
D|---0-----0-----0-----0------------|---0-----0-----0-----0---3---1----|
G|-------4-----2-----0--------------|-------4-----2-----4--------------|
B|-2-----------------------1----4---|-2--------------------------------|
A|----------------------------------|----------------------------------|
E|----------------------------------|----------------------------------|

e|-----0-----0-----0-----0---0---0-|-----0-----0-----0-----0---0---0--|
D|---0-----0-----0-----0-----------|---0-----0-----0-----0------------|
G|-------4-----2-----0-------------|-------4-----2-----4-----5---4----|
B|-2-----------------------1---4---|-2--------------------------------|
A|---------------------------------|----------------------------------|
E|---------------------------------|----------------------------------|

e|----0-----0-----0-----0---0---0-|-----0-----0-----0-----0---0---0--|
D|--0-----0-----0-----0-----------|---0-----0-----0-----0---3---1----|
G|------4-----2-----0-------------|-------4-----2-----4--------------|
B|2-----------------------1---4---|-2--------------------------------|
A|--------------------------------|----------------------------------|
E|--------------------------------|----------------------------------|
comments
print report bad tab
1 comment total.
0 reply
cornjolio wrote on March 11 2007, 12:56 pm

really good tab but it was kind of confusing when you put guitar 1 and 2 together

I want to post or [tab]
guest
You may want to rate the tab now too:
select rating
Please do not post tabs as comments. Select "correction" instead!