Oops, an error
Loading. Please wait.

Holy Thunderforce Tab

ver1
ver1

Whole song

More versions @911Tabs.com
6,932 views 7 this week
no commentswrite comment
1 2 3 4 5
excellent!
x 2
add to favorites launch autoscroll
font size
0
reset
Autoscroll
+/-
esc
set tempo
stop
WARNING: You are trying to view
                                    content from Ultimate-Guitar.com
                                    in an unauthorized application,
                                    which is prohibited.

                                    Please use an official Ultimate
                                    Guitar Tabs application for iPhone,
                                    iPad or Android to access legitimate
                                    chords, guitar, bass, and drum tabs
                                    from Ultimate-Guitar.com database.

                                    Type "ultimate guitar tabs" in Apple
                                    App Store's or Android Market's
                                    search to find the application.
*********************************************************************
* RHAPSODY - HOLY THUNDERFORCE (From the single: Holy Thunderforce) *
*********************************************************************
 Music and Words By: Turilli & Staropoli/Turilli

Transcribed By: Niclas Buss
Day tabbed: 16.10.2000
email: nbuss@ironmaiden.com

Please mail me if you can find mistakes!

-----------------------------------------

 Normal Tuning!!

  Intro (Gtr.1)
E-----------------------------------------------------------------------------------|
B-----------------------------------------------------------------------------------|
G*--------------------------------------------------------------------------------/-|
D*--15p0-14p0-0-0-0-12p0-0-0-0\8p0-10p0-12p0-10p0-8p0-0-0-0-7p0-0-0-0-5p0-3p0-2p0-/-|
A---------------------------------------------------------------------------------/-|
E-----------------------------------------------------------------------------------|

			    x4    Intro (Gtr.2)
E------------------------------||--at-0:10------------------------------------------|
B------------------------------||---------------------------------------------------|
G-10~-\-10-10-\-7~--7------7--*||*------7--------------------------7----------------|
D-10~-\-10-10-\-8~--8-\-7--7--*||*-x/---7--------------------------7----------------|
A-8~--\-8--8--\-5~--5------5---||--x/---5-5-5-5-5-5-5-5-5-5-5-5-5--5-5-5-5-5-5-5-5-5|
E------------------------------||---------------------------------------------------|
					 pm......................|  pm..............
					_____________ _________________
				       |1.           |2.    (end Intro)|
E--------------------------------------|-------------|-----------------||-----------|
B--------------------------------------|-------------|-----------A.H.--||-----------|
G------------------/-10~-\-10-10-\--7~-|--7------7--*|--7------7--7~---||-----------|
D------------------/-10~-\-10-10-\--8~-|--8-\-7--7--*|--8-\-7--7-------||--------7\-|
A-5-5-5-5-5-5-5-5--/--8~-\--8--8-\--5~-|--5------5---|--5------5-------||--5-5-5-5\-|
E--------------------------------------|-------------|-----------------||-----------|
 ................|							  pm....|

E-----------------------------------------------------------------------------------|
B-----------------------------------------------------------------------------------|
G-----------------------A.H.--------------------------------5~---5----5-------------|
D-------8\-------7\------8~----------7\-------8\-------7\---5~---5----5---/-------7\|
A-5-5-5-5\-5-5-5-5\--8-7----7--5-5-5-5\-5-5-5-5\-5-5-5-5\---3~---3----3---/-5-5-5-5\|
E-----------------------------------------------------------------------------------|
 pm....|  pm....|   pm..|     pm....|  pm....|  pm....|			   pm....|

E-----------------------------------------------------------------------------------|
B-----------------------------------------------------------------------------------|
G-----------------------A.H.---------------------------------------------------7~---|
D-------8\-------7\------8~----------7\-------8\-------7\--5~---5----5--/-8~---7~---|
A-5-5-5-5\-5-5-5-5\--8-7----7--5-5-5-5\-5-5-5-5\-5-5-5-5\--4~---4----4--/-7~---5~---|
E-----------------------------------------------------------------------------------|
 pm....|  pm....|   pm..|     pm....|  pm....|  pm....|

	Verse 1
E-----------------------------------------------------------------------------------|
B-----|-----------------------------------------------------------------------------|
G-----|--7\----7\--------3---5~------------7\----7\--------3---5~--------7\--7\--7\-|
D-~\--|--7\----7\----3---3---5~------------7\----7\----3---3---5~--------7\--7\--7\-|
A--\--|--5\----5\----3---1---3~--3h5h7-3---5\----5\----3---1---3~--15\---5\--5\--5\-|
E--------5\----5\----1---------------------5\----5\----1-----------------5\--5\--5\-|

      w/Fill 1				     w/Fill 2	        Chorus
E-----------------------------------------------------------------------------------|
B-------------------------------------------------------------|---------------------|
G--7\-------3---5~------------7\--7\--7\--7\-------3---5~-----|------5-------7------|
D--7\---3---3---5~------------7\--7\--7\--7\---3---3---5~-----|--3---5---7---7---8--|
A--5\---3---1---3~--3h5h7-3---5\--5\--5\--5\---3---1---3~--/--|--3---3---7---5---8--|
E--5\---1---------------------5\--5\--5\--5\---1-----------------1-------5-------6--|

E-----------------------------------------------------------------------------------|
B------------------------------------------------|----------------------------------|
G-----5---5~--------5-------7-----------5~---6~--|----------------------------------|
D-3---5---5~--\-3---5---7---7---8---3---5~---5~--|--------7\-------8\-------7\------|
A-3---3---3~--\-3---3---7---5---8---3---3~---4~--|--5-5-5-5\-5-5-5-5\-5-5-5-5\--8-7-|
E-1-----------\-1-------5-------6---1-----------------------------------------------|
						   pm....|  pm....|  pm....|   pm..|

E-----------------------------------------------------------------------------------|
B-----------------------------------------------------------------------------------|
GA.H.--------------------------------5~---5----5------------------------------------|
D-8~----------7\-------8\-------7\---5~---5----5--/-------7\-------8\-------7\------|
A----7--5-5-5-5\-5-5-5-5\-5-5-5-5\---3~---3----3--/-5-5-5-5\-5-5-5-5\-5-5-5-5\--8-7-|
E-----------------------------------------------------------------------------------|
       pm....|  pm....|  pm....|                   pm....|  pm....|  pm....|   pm..|

E-----------------------------------------------------------------------------------|
B----------------------------------------------------------------|-----------|------|
GA.H.---------------------------------------------------7~--\----|--Verse-2--|--Chor|
D-8~----------7\-------8\-------7\--5~---5----5--/-8~---7~--\-\--|-----------|------|
A----7--5-5-5-5\-5-5-5-5\-5-5-5-5\--4~---4----4--/-7~---5~--\-\--|-----------|------|
E-------------------------------------------------------------\---------------------|
       pm....|  pm....|  pm....|

       (w/Riff 1 third time)
E-----------------------------------------------------------------------------------|
B----|------------------------------------------------------------------------------|
Gus--|*-----------------------------------------------------------------------------|
D----|*--15p0-14p0-0-0-0-12p0-0-0-0\8p0-10p0-12p0-10p0-8p0-0-0-0-7p0-0-0-0-5p0-3p0-2|
A----|------------------------------------------------------------------------------|
E-----------------------------------------------------------------------------------|

				 x4   Guitar Solo
E--------------------------------------13----------13-17p13-------/-22-17---------\-|
B-----------------------------------|-----15----15----------15------------18-17~----|
G----/-10~-\-10-10-\-7~--7------7--*|--------14----------------14-------------------|
Dp0--/-10~-\-10-10-\-8~--8-\-7--7--*|-----------------------------------------------|
A----/--8~-\-8--8--\-5~--5------5---|-----------------------------------------------|
E-----------------------------------------------------------------------------------|

E-9---------9-12p9------/-17-12--------/10----------13----------10----------13------|
B---10---10--------10-----------14---------11-10-11----11-10-11----11-10-11----11-10|
G------9--------------9------------14~----------------------------------------------|
D-----------------------------------------------------------------------------------|
A-----------------------------------------------------------------------------------|
E-----------------------------------------------------------------------------------|

E-----------------------------------------------------------------------------------|
B-10--------------------------------------------------------------------------------|
G----\14-----------17----------14----------17----------/-15----------19----------15-|
D--------15-14-15-----15-14-15----15-14-15----15-14-15------17-16-17----17-16-17----|
A-----------------------------------------------------------------------------------|
E-----------------------------------------------------------------------------------|

E-----------------------/-13----------17----------13----------17----------/-17~--18-|
B----------------------------15-14-15----15-14-15----15-14-15----15-14-15-----------|
G----------19-----------------------------------------------------------------------|
D-17-16-17----17-16-17--------------------------------------------------------------|
A-----------------------------------------------------------------------------------|
E-----------------------------------------------------------------------------------|

E-18~-/-22--21h22p21\18-17-16-17~--18--17h18p17-15------------18--17h18p17-15-------|
B--------------------------------------------------18-17-14~------------------18-17-|
G-----------------------------------------------------------------------------------|
D-----------------------------------------------------------------------------------|
A-----------------------------------------------------------------------------------|
E-----------------------------------------------------------------------------------|

									       Choru
E-----------------------------------------------------------------------------------|
B-15~~--|-----------------|---------------------------|-----------|----------|------|
G-------|--Keyboard-Solo--|--Guitar-Solo-with-Violin--|--Verse-3--|--Chorus--|------|
D-------|-----------------|---------------------------|-----------|----------|--3---|
A-------|-----------------|---------------------------|-----------|----------|--3---|
E-------------------------------------------------------------------------------1---|

 s (2)									   w/Riff 1
E-----------------------------------------------------------------------------------|
B-------------------------------------------------------------|----------|----------|
G--5-------7-----------5~--------5-------7-----------5~---6~--|--Chorus--|*---------|
D--5---7---7---8---3---5~--\-3---5---7---7---8---3---5~---5~--|---(1)----|*-15p0-14p|
A--3---7---5---8---3---3~--\-3---3---7---5---8---3---3~---4~--|----------|----------|
E------5-------6---1-------\-1-------5-------6---1----------------------------------|
 								       _____________
  (and w/Riff 2 third time)					      |1.2.
E---------------------------------------------------------------------|-------------|
B---------------------------------------------------------------------|-------------|
G---------------------------------------------------------------------|--/-10~-\-10-|
D0-0-0-0-12p0-0-0-0-8p0-10p0-12p0-10p-8p0-0-0-0-7p0-0-0-0-5p0-3p0-2p0-|--/-10~-\-10-|
A---------------------------------------------------------------------|--/--8~-\--8-|
E---------------------------------------------------------------------|-------------|
 ______________________ _______________________________ ____________________________
		       |3.                             |4.
E----------------------|-------------------------------|----------------------------|
B----------------------|-------------------------------|----------------------------|
G-10--\-7---7------7--*|--/-10~-\-10--\-7---7------7--*|--/-10~-\-10--\-7-----------|
D-10--\-8---8-\-7--7--*|--/-10~-\-10--\-8---8-\-7--7--*|--/-10~-\-10--\-8-\-7------7|
A--8--\-5---5------5---|--/--8~-\--8--\-5---5------5---|--/--8~-\--8--\-5-\-8-\-7--7|
E----------------------|-------------------------------|------------------\-5------5|

E---------------------------------------||
B---------------------------------------||
G------\-6~-------------------7\--------|| end
D~--7~-\-5~--/8-7-5---7-5-----7\--------||
A~-----\-4~---------8-----8-7-5\--------||
E~--------------------------------------||

--------------------------------------------------------------------------------------

  Fill 1       Fill 2
E--------------------------||
B------------|-----6~-8~---||
G-----7~-9~--|--5~---------|| end
D--7~--------|-------------||
A------------|-------------||
E--------------------------||
									 ___________
  Riff 1								|1.
E-----------------------------------------------------------------------|-----------|
B-----------------------------------------------------------------------|-----------|
G*--7--------------------------7--------------------------/-10~-\-10-10-|-\-7---7---|
D*--7--------------------------7--------------------------/-10~-\-10-10-|-\-8---8-\-|
A---5-5-5-5-5-5-5-5-5-5-5-5-5--5-5-5-5-5-5-5-5-5-5-5-5-5--/-~8~-\-8--8--|-\-5---5---|
E-----------------------------------------------------------------------|-----------|
     pm......................|  pm......................|
 _________ _________________________
          |2.			    |
E---------|-------------------------||
B---------|------------------A.H.---||
G----7~--*|-\-7~--7-------7---7~----|| end
D-7--7~--*|-\-8~--8-~\-7--7---------||
A----5~---|-\-5~--5-------5---------||
E---------|-------------------------||
				      _____________ _____________________________
  Riff 2			     |1.	   |2.				 |
E------------------------------------|-------------|-----------------------------||
B------------------------------------|-------------|-----------------------------||
G*--7\-------7--7\---/-10~-\-10--\-7-|-7------7~--*|---------------6~----7~--\---||
D*--7\-------7--7\---/-10~-\-10--\-8-|-8-\-7--7~--*|-\-7------7----5~----7~--\---||
A---5\-------5--5\---/--8~-\--8--\-5-|-5------5~---|-\-8-\-7--7----4~----5~--\---||
E------------------------------------|-------------|-\-5------5------------------||

  Rhythm Guitar during Guitar Solo
E----------(2-Gtrs:)-----------------------------------------||
B------------------------------------------------------------||
G--------------------------3--------/-7~----7~--------7~-----|| end
D-----2~-3~----------2~----3----3---/-5~----7~--------7~-----||
A--5~--------4~--5~--4~----1----3-----------5~--------5~-----||
E------------5~--7~-------------1----------------------------||

  Rhythm Guitar during Keyboard Solo
E---------------------------------------------------------------------------||
B---------------------------------------------------------------------------||
G------5-------7-----------5-----------------5-------7-----------5~---6~----|| end
D--3---5---7---7---8---3---5-----------\-3---5---7---7---8---3---5~---5~----||
A--3---3---5---5---8---3---3--3-3-1-0--\-3---3---7---5---8---3---3~---4~----||
E--1-------4-------6---1---------------\-1-------5-------6---1--------------||
			     pm......|
 
--------------------------------------------------------------------------------------

=======================
=TABLATURE EXPLANATION=
=======================

A.H. = Artificial Harmonic

pm..| = Palm mute

h = hammer on

p = pull off

/ = slide up

\ = slide down

~ = Vibrato

b() = Bend

x\ = Pick Slide

--------
--------
---12--- = Tremolo pick
----/---
----/---
----/---

---.---
--12--- = Staccato
-------
-------
-------

|     |
|     |
|*   *| = repeat from * to *
|*   *| 
|     |
comments
We did not receive enough feedback on this tab! Please rate:
1 2 3 4 5
I want to post or [tab]
guest
You may want to rate the tab now too:
select rating
Please do not post tabs as comments. Select "correction" instead!