Oops, an error
Loading. Please wait.

Knightrider Of Doom Tab

ver1
ver1

Whole song

Interactive

More versions @911Tabs.com
1,932 views 1 this week
no commentswrite comment
1 2 3 4 5
excellent!
x 2
Autoscroll
+/-
esc
set tempo
stop
Hey! There's an official Ultimate Guitar app which is ideal
for learning songs when you're away from computer. Get the app
WARNING: You are trying to view
                                    content from Ultimate-Guitar.com
                                    in an unauthorized application,
                                    which is prohibited.

                                    Please use an official Ultimate
                                    Guitar Tabs application for iPhone,
                                    iPad or Android to access legitimate
                                    chords, guitar, bass, and drum tabs
                                    from Ultimate-Guitar.com database.

                                    Type "ultimate guitar tabs" in Apple
                                    App Store's or Android Market's
                                    search to find the application.
*****************************************************************************
* RHAPSODY - KNIGHTRIDER OF DOOM (From the Album: POWER OF THE DRAGONFLAME) *
*****************************************************************************
 Music and Words By: Turilli & Staropoli/Turilli

Transcribed By: Niclas Buss
Day tabbed: 6.4.2002
Homepage: http://www.metalprovider.com/thedarktower
email: thetabber@yahoo.se

Please mail me if you can find mistakes!

-----------------------------------------

 Normal Tuning!!

E-----------------------------------------------------------------------------------|
B-----------------------------------------------------------------------------------|
G-----------------------------------------------------------------------------------|
D-----------------------------------------------------------------------------------|
A--0-0-0-0-0-0-0-0-12p0-13p0-10p0-0-0-0-13p0-12p0-8p0-0-0-0-0-12p0-10p0-7p0-0-0-0-0-|
E-----------------------------------------------------------------------------------|
  pm................................................................................

E---------------------------------A.H......|----------------------------------------|
B----------------------------------10~----------------------------------------------|
G--------------------------------------10~-12-10-9----------------------------------|
D-----------------------------------------------------------------------------------|
A-0-0-0-12p0-13p0-10p0-0-0-0-0-0--------------------0-0-0-0-0-0-0-0-12p0-13p0-10p0-0|
E-----------------------------------------------------------------------------------|
 ...............................|                  pm...............................

E-----------------------------------------------------------------------------------|
B-----------------------------------------------------------------------------------|
G-----------------------------------------------------------------------------------|
D-----------------------------------------------------------------------------------|
A-0-0-13p0-12p0-8p0-0-0-0-12p0-10p0-7p0-0-0-0-0-0-0-0-0-12p0-13p0-10p0-0-0-0-13p0-12|
E-----------------------------------------------------------------------------------|
 ...................................................................................

E-----------------------------------------------------------------------------------|
B----------------------------------|------------------------------------------------|
G----------9--\--7~~------<7>~-----|------------------------------------------------|
D----------9--\--7~~---<7>~--<7>~--|------------------------------------------------|
Ap0-0-0-0--7--\--5~~---------------|--0-0-0-0-0-0-0-0-12p0-13p0-10p0-0-0-0-13p0-12p0|
E-----------------------------------------------------------------------------------|
 ........|                           pm.............................................

E-----------------------------------------------------------------------------------|
B-----------------------------------------------------------------------------------|
G------------------------------------------------------------------------A.H...|----|
D-------------------------------------------------------------------------/7--------|
A-8p0-0-0-0-12p0-5p0-8p0-7p0-4p0-/12p0-8p0-0-0-0-12p0-13p0-10p0-0-0-0-0-0----8--10p8|
E-----------------------------------------------------------------------------------|
 ........................................................................|

E-----------------------------------------------------------------------------------|
B-----------------------------------------------------------------------------------|
G-----------------------------------------------------------------------------------|
DA.H.-------------------------------------------------------------------------------|
A-7~---0-0-0-0-0-0-0-0-12p0-13p0-10p0-0-0-0-13p0-12p0-8p0-0-0-0-12p0-5p0-8p0-7p0-4p0|
E-----------------------------------------------------------------------------------|
      pm............................................................................

E-----------------------------------------------------------------------------------|
B-----------------------------------------------------------------------------------|
G--------------------------------------------------------7~-----<7>~-------<3>-\\\--|
D--------------------------------------/8~-7-5-----5-----7~--<7>~-----6~---<3>--\\\-|
A-/12p0-8p0-0-0-0-12p0-13p0-10p0-0-0-0---------8-7---8-7-5~-----------6~---<3>---\\\|
E---------------------------------------------------------------------4~----------\\|
 ......................................|

E---------17p13----------13h18p13h17p13----------13h17p13h17p13----------13h18p13h17|
B------|--------15----15----------------15----15----------------15----15------------|
G------|-----------14----------------------14----------------------14---------------|
D------|----------------------------------------------------------------------------|
A\\----|----------------------------------------------------------------------------|
E-\\\-------------------------------------------------------------------------------|

Ep13----------13h17p13/16p12----------12h17p12h16p12----------12h16p12-/14-11-------|
B----15----15----------------14----14----------------14----14-----------------13----|
G-------14----------------------13----------------------13-----------------------14-|
D-----------------------------------------------------------------------------------|
A-----------------------------------------------------------------------------------|
E-----------------------------------------------------------------------------------|

                   (end Intro)   Verse 1
E-----------------------------||----------------------------------------------------|
B-------play-with-T.bar-------||----------------------------------------------------|
G-\11~~--//\\-///--//-\\\-----||*---------------------------------------------------|
D-----------------------\\----||*---------------------------------------------------|
A-------------------------\\--||----------------------------------------------------|
E-----------------------------||---3-3-3-3-3-3/5-6--3-3-3-3-3-3/5-6--3-3-3-3-3-3/5-6|
                                  pm................................................

E-----------------------------------------------------------------------------------|
B-----------------------------------------------------------------------------------|
G-----------------------------------------------------------------------------------|
D-----------------------------------------------------------------------------------|
A------------------2-2-2-2-2-2/4-5--2-2-2-2-2-2/4-5--2-2-2-2-2-2/4-5--2-2-2-2-2-2/4-|
E-3-3-3-3-3-3/5-6-------------------------------------------------------------------|
 ...................................................................................

E-----------------------------------------------------------------------------------|
B-----------------------------------------------------------------------------------|
G-------------------------------------------------------------------------2~~---9~~-|
D-------------------------------------------------------------------------2~~---9~~-|
A-5-----------------------------------------------------------------------0~~---7~~-|
E----2-2-2-2-2-2/4-5--2-2-2-2-2-2/4-5--2-2-2-2-2-2/4-5--2-2-2-2-2-2/4-5-------------|
 ......................................................................|

      x2    Bridge                              Chorus
E--7~~------------------------------------------------------------------------------|
B--8~~---|------------------------------------|-------------------------------------|
G--9~~--*|--------------/--4--6h7---7---6~~---|--4-------4----7----------4---------7|
D--9~~--*|---3\-----6\--/--4----4---4---4~~---|--4---4-/-4----7----7-----4----4----7|
A--------|---3\-----6\------------------------|--2---4-/-2----5----7-----2----4----5|
E------------1\-----4\-------------------------------2-/-----------5----------2-----|

E-----------------------------------------------------------------------------------|
B-----------------------------6-------------------------------------------|---------|
G------4-----/-4--/-7----7----5----5----7--------/-10---------7-------7~--|---------|
D--7---4---4-/-4--/-7----7----3----5----7----7---/-10---10----7---7-/-7~--|---------|
A--7---2---4-/-2--/-5----5---------3----5----7---/--8---10----5---7-/-5~--|--7-8-10-|
E--5-------2---------------------------------5-----------8--------5-/---------------|
                                                                            pm......

E-----------------------------------------------------------------------------------|
B-----------------------------------------------------------------------------------|
G-----------------------------------------------------------------------------------|
D-----------------------------------------------------------------------------------|
A-/12p0-8p0-0-0-0-12p0-13p0-10p0-0-0-0-13p0-12p0-8p0-0-0-0-12p0-5p0-8p0-7p0-4p0-/12p|
E-----------------------------------------------------------------------------------|
 ...................................................................................

E-----------------------------------------------------------------------------------|
B-----------------------------------------------------------------------------------|
G-------------------------------------A.H..|----------------------------------------|
D--------------------------------------7--------A.H.--------------------------------|
A0-8p0-0-0-0-12p0-13p0-10p0-0-0-0-0-0----8--10-8-7~--12p0-8p0-0-0-0-12p0-13p0-10p0-0|
E-----------------------------------------------------------------------------------|
 ....................................|              pm..............................

E-----------------------------------------------------------------------------------|
B-----------------------------------------------------------------------------------|
G-----------------------------------------------------------------------------------|
D-----------------------------------------------------------------------------------|
A-0-0-13p0-12p0-8p0-0-0-0-12p0-5p0-8p0-7p0-4p0-/12p0-8p0-0-0-0-12p0-13p0-10p0-0-0-0-|
E-----------------------------------------------------------------------------------|
 ...................................................................................

E--------------------------------------------4~~------------------------------------|
B------------------------------------------4~~----|-----------|----------|----------|
G-----------------------7~-----<7>-------5~~------|--Verse-2--|--Bridge--|--Chorus--|
D-----/8--7-5-----5-----7~--<7>--------6----------|-----------|----------|----------|
A-0-0---------8-7---8-7-5~-----------6------------|-----------|----------|----------|
E----------------------------------4------------------------------------------------|
 ....|                            pm....|

  Guitar Solo 1 (Two Guitars)
E-Gtr.1:------15-17--15-17-18-15---------------15-17-17-15-----------------15-17--15|
B-----/-15-18---------------------18-15--15-18-------------18-17----/15-18----------|
G*-14------------------------------------------------------------14-----------------|
D*----------------------------------------------------------------------------------|
A-----------------------------------------------------------------------------------|
E-----------------------------------------------------------------------------------|
  Gtr 2:                                                                            |
E-----------------------------------------------------------------------------------|
B----------------10-----10-11---------------------10-10-----------------------10----|
G*---------10-12-----12-------12--10--------10-12-------12-10-9~--------10-12-----12|
D*----/-12---------------------------12--12-------------------------/12-------------|
A--12-----------------------------------------------------------\12-----------------|
E-----------------------------------------------------------------------------------|
                                                            _______ ___
                                                           |1.     |2. |  Guitar Sol
E-17-18-15---------------15-/17-17-\16-16-/17p12-----------|-------|---||-----------|
B-----------18-15--15-18-------------------------14--------|-------|---||-----------|
G---------------------------------------------------14-----|-14~--*|---||-----------|
D------------------------------------------------------14~-|------*|---||--12p10----|
A----------------------------------------------------------|-------|---||--------13-|
E----------------------------------------------------------|-------|---||-----------|
                                                           |       |   ||
E----------------------------------------------------------|-------|---||
B-10-11------------------------------------10--------------|-------|---||
G-------12--10--------10-12-/14-14-\13-13------9-----------|------*|---||
D--------------12--12----------------------------11--------|------*|---||
A---------------------------------------------------12-----|-12~---|-/-||
E------------------------------------------------------12~-|-------|---||

 o 2
E------------------------------------------------/-17-17-18-18b(20)r18-17-----------|
B---------11b(13)p11----------------8b(10)r8------------------------------\17-17b(18|
G-----10-------------10----------7-----------7~-------------------------------------|
D-12--------------------------8-----------------------------------------------------|
A-------------------------10--------------------------------------------------------|
E-----------------------------------------------------------------------------------|

E---------------18p13----13--------------------------------/19p16----16-------------|
B)r17-15--------------15----15------------------------------------17----17----------|
G--------18-17-----------------15~~----------------------------------------16~~-----|
D-----------------------------------------------------------------------------------|
A-----------------------------------------------------------------------------------|
E-----------------------------------------------------------------------------------|
              | Guitar 2:                                                           |
             E|-13p10----10-------13p12p11p10--------------/16p12----12--------16p14|
             B|-------11----11----------------13p11p10h11~--------12----12----------|
             G|----------------10------------------------------------------13-------|
             D|---------------------------------------------------------------------|
             A|---------------------------------------------------------------------|
             E|---------------------------------------------------------------------|

                                                                             Guitar 
E--------------/-21p17----17-------17p12----12--------12p9-----------------|--Gtr.1:|
B----------------------17----17----------14----14----------10--------------|--------|
G-------------------------------16----------------14~---------9------------|--------|
D---------------------------------------------------------------12---------|-----12-|
A------------------------------------------------------------------12-p7~~-|--13----|
E--------------------------------------------------------------------------|--------|
                                                                           |
Ep12-----------/-17p12----12--------12p9----9------------------------------|--Gtr.2:|
B----15p14p12~---------14----14----------10----10--------------------------|--------|
G-------------------------------14----------------9--14p9------------------|--------|
D---------------------------------------------------------11----11---------|-----12-|
A------------------------------------------------------------12----12------|--13----|
E---------------------------------------------------------------------12~~-|--------|

  Solo 3
E-------10--------/13p8----------------------------10p6---\-5-5p1-------------------|
B----11----11-----------10-----------------------8------8---------3-----------------|
G-10----------10-----------10------------------7--------------------2------------10-|
D-----------------------------10-------------8------------------------3-------12----|
A--------------------------------12p8h12-/10-----------------------------\-13-------|
E-----------------------------------------------------------------------------------|
                                                                                    |
E-------10--------/-8p5---------------------------/6------/-5p1---------------------|
B----11----11------------6----------------------8----8----------3-------------------|
G-10----------10------------5-----------------7--------7----------2--------------10-|
D------------------------------7------------8-----------------------3---------12----|
A---------------------------------8~----/10---------------------------5--/-13-------|
E-----------------------------------------------------------------------------------|

E----10--------/13p8----------------------------10p6---\-5-5p1----------------------|
B-11----11-----------10-----------------------8------8---------3-------/10-13-11-13-|
G----------10-----------10------------------7--------------------2------------------|
D--------------------------10-------------8------------------------3----------------|
A-----------------------------12p8h12-/10-------------------------------------------|
E-----------------------------------------------------------------------------------|

E----10--------/-8p5----------------------------/6-----/-5p1------------------------|
B-11----11------------6-----------------------8----8---------3---------/10-13-11-13-|
G----------10------------5------------------7--------7---------2--------------------|
D---------------------------7-------------8----------------------3------------------|
A------------------------------8~-----/10--------------------------5----------------|
E-----------------------------------------------------------------------------------|

E---------------------------------------------------------------/7-10-8-10-7-10-8-10|
B-10-13-11-13-/-13-17-15-17-13-17-15-17-\-9-12-10-12-9-12-10-12---------------------|
G-----------------------------------------------------------------------------------|
D-----------------------------------------------------------------------------------|
A-----------------------------------------------------------------------------------|
E-----------------------------------------------------------------------------------|

E---------------------------------------------------------------/7-10-8-10-7-10-8-10|
B-10-13-11-13-/-13-17-15-17-13-17-15-17-\-9-12-10-12-9-12-10-12---------------------|
G-----------------------------------------------------------------------------------|
D-----------------------------------------------------------------------------------|
A-----------------------------------------------------------------------------------|
E-----------------------------------------------------------------------------------|

                                                             Chorus (2)
E--9p5---5------/-12p9----9-------------14-12h14p12-------|-------------------------|
B------5---5-----------10---10----/-16--------------14~~--|--------------6----------|
G------------6-----------------9--------------------------|*--7-----7----5---5----7-|
D---------------------------------------------------------|*--7-----7----3---5----7-|
A---------------------------------------------------------|---5-----5--------3----5-|
E---------------------------------------------------------|-------------------------|
                                                          |
E--9p5---5------/-12p9----9-------------14-12h14p12-------||
B------5---5-----------10---10----/-14--------------14~~--||
G------------6-----------------9--------------------------||
D---------------------------------------------------------||
A---------------------------------------------------------||
E---------------------------------------------------------||

                               x2   Outro
E-----------------------------------------------------------------------------------|
B---------------------------------|-------------------------------------------------|
G------/--10---------7-----/-7~--*|-------------------------------------------------|
D--7---/--10---10----7---7-/-7~--*|-------------------------------------------------|
A--7---/---8---10----5---7-/-5~---|--7-8-10/12p0-8p0-0-0-0-12p0-13p0-10p0-0-0-0-13p0|
E--5------------8--------5----------------------------------------------------------|
                                    pm..............................................

E-----------------------------------------------------------------------------------|
B-----------------------------------------------------------------------------------|
G------------------------------------------------------------------------------A.H.||
D-------------------------------------------------------------------------------7---|
A-12p0-8p0-0-0-0-12p0-5p0-8p0-7p0-4p0-/12p0-8p0-0-0-0-12p0-13p0-10p0-0-0-0-0-0----8-|
E-----------------------------------------------------------------------------------|
 ..............................................................................|

E-----------------------------------------------------------------------------------|
B-----------------------------------------------------------------------------------|
G-----------------------------------------------------------------------------------|
D-----A.H.--------------------------------------------------------------------------|
A-10p8-7~---12p0-8p0-0-0-0-12p0-13p0-10p0-0-0-0-13p0-12p0-8p0-0-0-0-12p0-5p0-8p0-7p0|
E-----------------------------------------------------------------------------------|
           pm.......................................................................

E-----------------------------------------------------------------------------------||
B-----------------------------------------------------------------------------------||
G-----------------------------------------------------------------7~----<7>---7-\---|| end
D-----------------------------------------------/8--7-5-----5-----7~--<7>-----7-\-\-||
A-4p0-/12p0-8p0-0-0-0-12p0-13p0-10p0-0-0-0-0-0----------8-7---8-7-5~----------5-\-\-||
E---------------------------------------------------------------------------------\-||
 .............................................|

----------------------------------------------------------------------------------

  Rhythm Guitar during Guitar Solo 1                                              x2
E-----------------------------------------------------------------------------------||
B--------6--/--8--------------6--------------------6--/--8--------------6-----------||
G*--7----5--/--7----7----7----5---------------7----5--/--7----7----7----5----------*||
D*--7----3--/--5----7----7----3----5--/--7----7----3--/--5----7----7----3---6~--7--*||
A---5---------------5----5---------5--/--7----5---------------5----5--------5~--7---||
E----------------------------------3--/--5----------------------------------4~--5---||

 Rhythm Guitar during Guitar Solo 2
E--------------------------------------------------||
B--------------------------------------------------||
G---3----------------/--10~~----3-----------2~~----|| end
D---3-----5-----3----/--10~~----3-----2-----2~~----||
A---1-----5-----3----/---8~~----1-----2-----0~~----||
E---------3-----1---------------------0------------||

  Rhythm Guitar during Guitar Solo 3
E------------------------------------------------------------------------||
B------------------------------------------------------------------------||
G---3-------------------7----3-------------------7-----------------------|| end
D---3----3-----5----5-/-7----3----3-----5----5-/-7---\--3-----6----7~~---||
A---1----3-----5----5-/-5----1----3-----5----5-/-5---\--5-----5----7~~---||
E------3-1-----3----3-/---------3-1-----3----3-/-----\--6-----4----5~~---||

----------------------------------------------------------------------------------

=======================
=TABLATURE EXPLANATION=
=======================

A.H. = Artificial Harmonic

pm..| = Palm mute

h = hammer on

p = pull off

/ = slide up

\ = slide down

~ = Vibrato

b() = Bend

x\ = Pick Slide

--------
--------
---12--- = Tremolo pick
----/---
----/---
----/---

---.---
--12--- = Staccato
-------
-------
-------

|     |
|     |
|*   *| = repeat from * to *
|*   *| 
|     |
comments
We did not receive enough feedback on this tab! Please rate:
print report bad tab
1 2 3 4 5
I want to post or [tab]
guest
You may want to rate the tab now too:
select rating
Please do not post tabs as comments. Select "correction" instead!