Oops, an error
Loading. Please wait.

Sacred Power Of Raging Winds Tab

ver1
ver1

Whole song

Interactive

More versions @911Tabs.com
1,631 views 9 this week
no commentswrite comment
1 2 3 4 5
excellent!
x 1
Autoscroll
+/-
esc
set tempo
stop
Contributor
Tabbers playing skills
advanced +
Hey! There's an official Ultimate Guitar app which is ideal
for learning songs when you're away from computer. Get the app
WARNING: You are trying to view
                                    content from Ultimate-Guitar.com
                                    in an unauthorized application,
                                    which is prohibited.

                                    Please use an official Ultimate
                                    Guitar Tabs application for iPhone,
                                    iPad or Android to access legitimate
                                    chords, guitar, bass, and drum tabs
                                    from Ultimate-Guitar.com database.

                                    Type "ultimate guitar tabs" in Apple
                                    App Store's or Android Market's
                                    search to find the application.
**************************************************************************************************
*RHAPSODY - SACRED POWER OF RAGING WINDS (From the Album: Symphony Of Enchanted Lands II: T.D.S.)*
**************************************************************************************************

Transcribed By: Niclas Buss
I didn't tab this, credit goes to Niclas Buss for tabbing, I found it on his site 
and uploaded it here.

 Normal Tuning!!
                          Riff 1
E-----------------------------------------------------------------------------------|
B-----------------------|-----------------------------------------------------------|
G---Intro-(Narrative)---|*----------------------------------------------------------|
D-------(36-sec)--------|*----------------------------------------------------------|
A-----------------------|---------5-----5-6-5-3-----------5-----5-6-5-3-----------4-|
E---------------------------3-6-3---6-5---------6-5-3-6-3---6-5---------6-5-3-6-3---|
                           pm.......................................................

                                         x4             end Riff 1   Verse 1
E-----------------------------------------------------------------||----------------|
B-------------------------------------------|---------------------||----------------|
G------------------------------------------*|--------7-\6~--------||----------------|
D------------------------------------------*|---5----7-\6~--\-7~--||----------------|
A---4-5-6-5-3-----------4---4-5-6-5-3-------|---5----5-\4~--\-7~--||----------------|
E-6-----------6-5-3-6-3---6-----------6-5-------3-----------\-5~--||---2-2-2-2-2-2-2|
 ........................................|                            pm............

E-----------------------------------------------------------------------------------|
B-----------------------------------------------------------------------------------|
G-----------------------------------------------------------------------------------|
D-----------------------------------------------------------------------------------|
A-----------------------------------------------------------------------------------|
E-2-2-2-2-2-2-2-2-2-2-2-2-2-2-2-2-2-2-2-2-2-2-2-2-2-2-2-2-2-2-2-2-2-2-2-2-2-2-2-2-2-|
 ...................................................................................
                      __________________ ________________________________________etc
                     |1.                |2.
E--------------------|------------------|----------------6-------9-------7-------6--|
B--------------------|------------------|------------------7-6-7---7-6-7---7-6-7---7|
G--------------------|-----------------*|-------------------------------------------|
D--------------------|-----------------*|---------Gtr.2:-4\-------------------------|
A--------------------|------------------|----------------4\-------------------------|
E-2-2-2-2-2-2-2-2-2--|-2-2-2-2-2-2-2-2--|-/7-5-4-/5-4-2--2\-------------------------|
 ......................................................|

E-----/9---------14---------12---------9---------10----------14----------12---------|
B-6-7----11-9-11----11-9-11----11-9-11---11-9-11----12-11-12----12-11-12----12-11-12|
G-----------------------------------------------------------------------------------|
D-----------------------------------------------------------------------------------|
A-----------------------------------------------------------------------------------|
E-----------------------------------------------------------------------------------|

E-10----------/14----------19----------15----------14----------/19-18-19-14----14---|
B----12-11-12-----15-14-15----15-14-15----15-14-15----15-14-15--------------15------|
G---------------------------------------------------------------------------------16|
D-----------------------------------------------------------------------------------|
A-----------------------------------------------------------------------------------|
E-----------------------------------------------------------------------------------|

 ...____________________________________________________________________ ___________
                                                                        |3.
E---18-17-18-15----15------19-18-19-14----14---------9h14p9-------------|-----------|
B---------------17---------------------15---------11--------11----------|-----------|
G~--------------------18~--------------------16~---------------11------*|-----------|
D----------------------------------------------------------------11~~--*|-----------|
A-----------------------------------------------------------------------|-----------|
E-----------------------------------------------------------------------|--2-2-2-2-2|
 ________ _______________
         |4.             |  Chorus
E--------|---------------||---------------------------------------------------------|
B--------|---------------||---------------------------------------------------------|
G-------*|---------------||---------------------------------------------------------|
D-------*|---------------||--4-\--5--7---4-\--5--7----------------------------------|
A--------|---------------||--4-\--5--7---4-\--5--7---/5-5-5-5-5-5-5-5-5-5-5-5-5-5-5-|
E-2-2-2--|-/7-5-4-/5-4-2-||--2-\--3--5---2-\--3--5----------------------------------|
 .......................|                           pm..............................

E-----------------------------------------------------------------------------------|
B-----------------------------------------------------------------------------------|
G-----------------------------------------------------------------------------------|
D-----------------------------------------------------------------------------------|
A-5-\0-0-0-0-0-0-0-0-0-0-0-0-0-0-0-0/2-2-2-2-2-2-2-2-2-2-2-2-2-2-2-2----------------|
E---------------------------------------------------------------------2-2-2-2-2-2-2-|
 ...................................................................................

E-----------------------------------------------------------------------------------|
B-----------------------------------------------------------------------------------|
G-----------------------------------------------------------------------------------|
D-----------------------------------------------------------------------------------|
A----------------------------------------------------/5-5-5-5-5-5-5-5-5-5-5-5-5-5-5-|
E-2-2-2-2-2-2-2-2-2-/3-3-3-3-3-3-3-3-3-3-3-3-3-3-3-3--------------------------------|
 ...................................................................................

E-----------------------------------------------------------------------------------|
B-----------------------------------------------------------------------------------|
G--------------------------4---2--------------7~----8~----8~----7~------------------|
D---------------/5-4-2-----4---2---5----5--7--7~----8~----8~----7~----7~----8~----7~|
A-5----1~---1-4--------5-4-2---0---5----5--7--5~----6~----6~----5~----7~----8~----7~|
E----2~---2------------------------3----3--5--------------------------5~----6~----5~|
 ..|     pm...............|
                                                   Verse 2
E-----------------------------------------------------------------------------------|
B----------------------------------|------------|-----------------------------------|
G---7~-----------------------------|---Riff-1---|*----------------------------------|
D---7~--7-5-------7-8-7-5----------|------------|*----------------------------------|
A---5~------8-7-5---------8-7-5----|------------|-----------------------------------|
E---------------------------------------------------2-2-2-2-2-2-2-2-2-2-2-2-2-2-2-2-|
       pm.......................|                  pm...............................

E-----------------------------------------------------------------------------------|
B-----------------------------------------------------------------------------------|
G-----------------------------------------------------------------------------------|
D-----------------------------------------------------------------------------------|
A-----------------------------------------------------------------------------------|
E-2-2-2-2-2-2-2-2-2-2-2-2-2-2-2-2-2-2-2-2-2-2-2-2-2-2-2-2-2-2-2-2-2-2-2-2-2-2-2-2-2-|
 ...................................................................................
  ___________________ ______________________________________________________________
 |1.                 |2.  Keyboard arranged for guitar:
E|-------------------|-----------------.-----.-9-14~--12h14h15-14h15p14p12----------|
B|-------------------|----------------11--.-11-----------------------------15-14-15-|
G|------------------*|-------------------11-----------------------------------------|
D|------------------*|----------------4\--------------------------------------------|
A|-------------------|----------------4\--------------------------------------------|
E|-2-2-2-2-2-2-2-2---|-/7-5-4-/5-4-2--2\--------------------------------------------|
  ..................................|
 _________________________________________________________________________ _________
                                                                          |3.
E-12-14~-12h14p12~-10h12p10-----------------------------------------------|---------|
B---------------------------14-12-10--------------------------------------|---------|
G------------------------------------12-11-\9p7p6------------------------*|---------|
D-------------------------------------------------9p7p5\4----------------*|---------|
A---------------------------------------------------------7p5p4-----------|---------|
E---------------------------------------------------------------7p5p3\2---|-2-2-2-2-|
 ___________ ________________                                              pm.......
            |4.              |
E-----------|----------------||-----------------------------------------------------|
B-----------|----------------||----------------|---------|--------------------------|
G----------*|----------------||-----Chorus-----|---7~~---|----Orchestra-&-Vocals----|
D----------*|----------------||----------------|---7~~---|-------and-Narrative------|
A-----------|----------------||----------------|---5~~---|--------------------------|
E-2-2-2-2---|-/7-5-4-\5-4-2--||-----------------------------------------------------|
 ..........................|
 
  Guitar enters again at (5:11)
E-----------------------------------------------------------------------------------|
B-----------------------------------------------------------------------------------|
G---2\------2\------2\-2~-----2\------2~----------2~-------2~-------2~--------2~----|
D---2\------2\------2\-2~-----2\------2~----------2~-------2~-------2~--------2~----|
A---0\------0\------0\-0~-----0\------0~----------0~-----0-0~-------0~--------0~----|
E-----------------------------------------------------------------------------------|
                                                        pm

E-----------------------------------------------------------------------------------|
B-----------------------------------------------------------------------------------|
G---2~-------2~--------2~-----2~--------2~--------2~-----2~----2-2\----2-2\---2-2\--|
D---2~-------2~--------2~-----2~--------2~--------2~-----2~----2-2\----2-2\---2-2\--|
A-0-0~-----0-0~------0-0~---0-0~------0-0~------0-0~---0-0~----0-0\----0-0\---0-0\--|
E-----------------------------------------------------------------------------------|
 pm       pm        pm     pm        pm        pm     pm     pm...................|

E-----------------------------------------------------------------------------------|
B---------------------------------------------------------------|-------------------|
G---2~--------2~--------2~------2\------2\------2\-2~-----2\----|*--2~--------2~----|
D---2~--------2~--------2~------2\------2\------2\-2~-----2\----|*--2~--------2~----|
A-0-0~------0-0~------0-0~------0\------0\------0\-0~-----0\--0-|---0~------0-0~---0|
E-----------------------------------------------------------------------------------|
 pm        pm        pm                                      pm            pm     pm

                                                                                 x2
E-----------------------------------------------------------------------------------|
B-----------------------------------------------------------------------------------|
G-2~--------2~--------2~-----2~------2-2\----2-2\---2-2\-------2~--------2~--------*|
D-2~--------2~--------2~-----2~------2-2\----2-2\---2-2\-------2~--------2~--------*|
A-0~------0-0~------0-0~---0-0~------0-0\----0-0\---0-0\-----0-0~------0-0~------0--|
E-----------------------------------------------------------------------------------|
         pm        pm     pm        pm........................|       pm        pm

E-----------------------------------------------------------------------------------|
B-----------------------------------------------------------------------------------|
G--2\----2\----2\----2\---2~--2\----2\----2\----2\---2~-----------------------------|
D--2\----2\----2\----2\---2~--2\----2\----2\----2\---2~--4~~~~-----4~---------------|
A--0\----0\----0\----0\---0~--0\----0\----0\----0\---0~--4~~~~-----4~---------------|
E--------------------------------------------------------2~~~~-----2~---2-2-2-2-2-2-|
                                                                       pm...........

E-----------------------------------------------------------------------------------|
B-----------------------------------------------------------------------------------|
G-----------------------------------------------------------------------------------|
D-----------------------------------------------------------------------------------|
A-----/2~~-------------------------5-5-5-5-5-5-5-5--------4-4-4-4-4-4-4-4-----------|
E-2-2-------0-0-0-0-0-0-0-0-/5~~-------------------\4~~-------------------\2-2-2-2-2|
 ....|     pm..............|      pm..............|      pm.........................

                               Guitar Solo 1
E-----------------------------------------------------------------------------------|
B-----------|----------------|--14----------10----------/14-12-10----------10-12-\10|
G-----------|---Flute-Solo---|*----11p10h11----11p10h11-----------13p11h13----------|
D-----------|----------------|*-----------------------------------------------------|
A-----------|----------------|------------------------------------------------------|
E-2-2-2-2\--------------------------------------------------------------------------|
 .........|

E----------10----------10-9----------------10---------------------------------------|
B----------------------------12-10-9-10-12----/14----------10----------/14-12-10----|
G-11p10h11----11p10h11----------------------------11p10h11----11p10h11-----------13-|
D-----------------------------------------------------------------------------------|
A-----------------------------------------------------------------------------------|
E-----------------------------------------------------------------------------------|

                                                           x2
E-------------/15----------12-------------------------------------------------------|
B-------10-12-----12-10-12----12-10/12-17-16-17-12-17-16-17---|---14----------10----|
G-11-13------------------------------------------------------*|*-----11p10h11----11p|
D------------------------------------------------------------*|*--------------------|
A-------------------------------------------------------------|---------------------|
E-----------------------------------------------------------------------------------|

E--------------------------------------------10----------10-9---------------10/12---|
B-------/14-12-10----------10-12\10---------------------------12-10-9-10-12---------|
Gp10h11-----------13-11-13----------11p10h11----11p10h11--------------------------14|
D-----------------------------------------------------------------------------------|
A-----------------------------------------------------------------------------------|
E-----------------------------------------------------------------------------------|

E-------14----------/16-14-13----------13-14-15-/-19-17-15-\12-15-14-15-------------|
B-----------------------------15-14-15----------------------------------12-17-16-17-|
Gp13h14----14p13h14-----------------------------------------------------------------|
D-----------------------------------------------------------------------------------|
A-----------------------------------------------------------------------------------|
E-----------------------------------------------------------------------------------|

             x2   w/Lead Fill
E-----------------------------------------------------------------------------------|
B-12-17-16-17---|--------------10-14-12-14-------------------------------------12-15|
G--------------*|--11-14-13-14-------------13-16-14-16-13-16-14-16-13-16-14-16------|
D--------------*|---4\--------------------------------------------------------------|
A---------------|---4\--------------------------------------------------------------|
E-------------------2\--------------------------------------------------------------|

E-----------------------------------------------------------------------------------|
B-14-15-\10-14-12-14-10-14-12-14-/12-15-14-15-/14-17-15-17-/15-19-17-19-15-19-17-19-|
G-----------------------------------------------------------------------------------|
D-----------------------------------------------------------------------------------|
A-----------------------------------------------------------------------------------|
E-----------------------------------------------------------------------------------|

E-------------12-16-14-16-/14-17-16-17-14-17-16-17-\14p9----------9-----------------|
B-15-19-17-19--------------------------------------------10----10---10--------------|
G-----------------------------------------------------------11---------11-----------|
D-------------------------------------------------------------------------11--------|
A----------------------------------------------------------------------------12p9h12|
E-----------------------------------------------------------------------------------|

                           Guitar Solo 2
E----------9h14~~--\--------18p14----------14---------------------------/21p17------|
B-------10-----------\---|--------14----14----14-------------------------------17---|
G----11------------------|-----------15----------15-------------------------------18|
D-11---------------------|--------------------------16------------------------------|
A------------------------|-----------------------------16p13------------------------|
E------------------------------------------------------------14~-\------------------|

E----17------------------------/17p12----------12/16~---19p16----------16/17~~------|
B-17----17----------------------------14----14----------------17----17-----------\15|
G----------18----------------------------14----------------------16-----------------|
D-------------19--------------------------------------------------------------------|
A----------------19p16--------------------------------------------------------------|
E----------------------17~-\--------------------------------------------------------|

E-----------------------------------------------------14p9----------9h14p9-13p9-----|
B-14-12-/14p10----------10h14p10-14p9----------9h14p9------10----10-------------9---|
G--------------11----11---------------10----10----------------11------------------8-|
D-----------------11---------------------11-----------------------------------------|
A-----------------------------------------------------------------------------------|
E-----------------------------------------------------------------------------------|

E---9h13p9-/17p14----------14h17p14-/19p16----------16h19p16-/-21-22-21h22p21-19----|
B-9---------------14----14-----------------17----17------------------------------22-|
G--------------------14-----------------------16------------------------------------|
D-----------------------------------------------------------------------------------|
A-----------------------------------------------------------------------------------|
E-----------------------------------------------------------------------------------|

E-------19-21p17--------------------------/6-------9-------9-7-6------------/9------|
B-21-22----------19--------------------------7-6-7---7-6-7-------9-7~-\--------10-9-|
G-------------------18----18--------------------------------------------------------|
D----------------------19----19-----------------------------------------------------|
A-------------------------------21~-\-----------------------------------------------|
E-----------------------------------------------------------------------------------|

E----12---------12-10-9---------------/-17p12----------12/16~---19p16----------16/17|
B-10----10-9-10---------12-10~-\--------------14----14----------------17----17------|
G------------------------------------------------14----------------------16---------|
D-----------------------------------------------------------------------------------|
A-----------------------------------------------------------------------------------|
E-----------------------------------------------------------------------------------|

E~-----------------------------------------------------------14p9----------9h14p9-13|
B----\15-14-12-/14p10----------10h14p10-14p9----------9h14p9------10----11----------|
G---------------------11----11---------------10----11----------------11-------------|
D------------------------11---------------------11----------------------------------|
A-----------------------------------------------------------------------------------|
E-----------------------------------------------------------------------------------|

Ep9-------9h13p9-/-17p14----------14h17p14-/19p16----------16h19p16-/21-22-21h22p21-|
B---9---9----------------14----14-----------------17----17--------------------------|
G-----8---------------------14-----------------------16-----------------------------|
D-----------------------------------------------------------------------------------|
A-----------------------------------------------------------------------------------|
E-----------------------------------------------------------------------------------|

                                                                          x4
E-19----------19-/21p17-------------------------------------------------------------|
B----22-21-22-----------19----------------------|----------------------------|------|
G--------------------------18----18-------------|*---------4~---------------*|*-----|
D-----------------------------19----19----------|*---4~----4~----4~----2~---*|*-----|
A--------------------------------------21~-\----|----4~----2~----4~----2~----|------|
E----------------------------------------------------2~----------2~----0~-------2-2-|
                                                                               pm...

E-----------------------------------------------------------------------------------|
B-----------------------------------------------------------------------------------|
G-----------------------------------------------------------------------------------|
D-----------------------------------------------------------------------------------|
A-----------------------------/2-2-2-2-2-2-2-2-2-2-2-2-2-2-2-2----------------------|
E-2-2-2-2-2-2-2-2-2-2-2-2-2-2----------------------------------\-2-2-2-2-2-2-2-2-2-2|
 ...................................................................................

                                             x2
E----------------------------------------------------------------------------------||
B-----------------------------------------------|----------|-----------------------||
G----------------------------------------------*|--Chorus--|-------9\-8~--5--------|| end
D----------------------------------------------*|----------|---7---9\-8~--5---7-7\-||
A-----------------------------------------------|----------|---7---7\-6~--3---7-7\-||
E-2-2-2-2-2-2-\0-0-0-0-0-0-0-0-0-0-0-0-0-0-0-0-----------------5--------------5-5\-||
 .............................................|

----------------------------------------------------------------------------------------

  Lead Fill 1
E--21~-----------19~-16~-----/-14~-16~-17~---/-19-22-21b(22)~~~--r21~~--\----||
B------22~-21~-----------19~-------------------------------------------------||
G----------------------------------------------------------------------------|| end
D----------------------------------------------------------------------------||
A----------------------------------------------------------------------------||
E----------------------------------------------------------------------------||

  Rhythm Guitar during Guitar Solo 1
E-------------------------x2--------------------------------------------------------|
B----------------------------|------------------------------------------------------|
G*---------4~---------------*|*-----------------------------------------------------|
D*---4~----4~----4~----2~---*|*-----------------------------------------------------|
A----4~----2~----4~----2~----|---------------------------------/2-2-2-2-2-2-2-2-2-2-|
E----2~----------2~----0~--------2-2-2-2-2-2-2-2-2-2-2-2-2-2-2----------------------|
                                pm..................................................

E--------------------------------------------------------------------------------||
B--------------------------------------------------------------------------------||
G-------------------------------------------------------------------------------*|| end
D-------------------------------------------------------------------------------*||
A-2-2-2-2-2-2--------------------------------------------------------------------||
E-------------\2-2-2-2-2-2-2-2-2-2-2-2-2-2-2-2-\0-0-0-0-0-0-0-0-0-0-0-0-0-0-0-0--||
 ..............................................................................|

------------------------------------------------------------------------------
comments
We did not receive enough feedback on this tab! Please rate:
print report bad tab
1 2 3 4 5
I want to post or [tab]
guest
You may want to rate the tab now too:
select rating
Please do not post tabs as comments. Select "correction" instead!