Oops, an error
Loading. Please wait.

Symphony Of Enchanted Lands Tab

1,157 views 1 this week
no commentswrite comment
1 2 3 4 5
accurate
x 2
add to favorites launch autoscroll
font size
0
reset
Autoscroll
+/-
esc
set tempo
stop
WARNING: You are trying to view
                                    content from Ultimate-Guitar.com
                                    in an unauthorized application,
                                    which is prohibited.

                                    Please use an official Ultimate
                                    Guitar Tabs application for iPhone,
                                    iPad or Android to access legitimate
                                    chords, guitar, bass, and drum tabs
                                    from Ultimate-Guitar.com database.

                                    Type "ultimate guitar tabs" in Apple
                                    App Store's or Android Market's
                                    search to find the application.
RHAPSODY - SYMPHONY OF ENCHANTED LANDS
Music:Staropoli and Turilli

Transcribed By: Niclas Buss

Email: Nbjbuss@hotmail.com

Please mail me if you find mistakes!

Normal Tuning


  0:00 - 1:02		1:02-3:04	    3:05	  x2
E----------------------------------------------------------------------------------|
B-------Part-I:-------|----Part-II:------|--------------------|--------------------|
G--Tharos-Last-Fight--|---The--Hymn--Of--|*------------------*|--------------------|
D-------(Intro)-------|---The--Warrior---|*--7-----------2---*|--7--7--------------|
A---------------------|-(Orchestra-part)-|---5---3---5---0----|--5--5--3--3--5--5--|
E------------------------------------------------1---3-----------------1--1--3--3--|

				  4:07 (Part III: Rex Tremende)
E-------------------------------Gtr.1----------------------------------------------|
B------------------------------|----------------------------8----------------------|
G------------------------------|--------9----7-------9----7------9----7------------|
D-2--2---7--7--------------2~--|------7---10---9---7---10------7---10---9-5-9--7---|
A-0--0---5--5--3--3--5--5--0~--|------7\-----------7\----------7\---------5-5--7---|
E--------------1--1--3--3-------Gtr.2-5\-----------5\----------5\---------3-3--5---|

E----------------------------------------------------------------------------------|
B-----------------------8------------------------------|---------------------------|
G---9----7-------9----7---9-----9----7-----------------|-----9----7----------9----7|
D-7---10---9---7---10---------7---10---9-9-10-9-5h7~---|--7----10---9------7---10--|
A-7\-----------7\-------------7\---------5----5---7----|---------------------------|
E-5\-----------5\-------------5\---------3----3---5-------5--5-5-5-5-5-----5--5-5-5|
							    pm........|      pm....

E----------------------------------------------------------------------------------|
B-8----------------------------------------------------8---------------------------|
G----------9----7----------------9----7----------9---7---9-------9----7------------|
D-------7----10---9--5-9-7----7----10---9-----7---10----------7----10---9--9-10-9-5|
A----------------------------------------------------------------------------------|
E-5-5---5--5-5-5-5-5-3-3-5----5--5-5-5-5-5----5---5-5-5-5-5---5--5-5-5-5-5-3----3--|
 ....|    pm........|           pm........|     pm..........|   pm........|		

E----------------------------------------------------------------------------------|
B-----|----------------------------------------------------------------------------|
G-----|----9-7---------------------9-7--------------------9-7-------------------9-9|
D-7---|--7-----10-7-9h10p9-7-9---7-----10-7-------7-9---7-----10-7-9h10p9-7-9------|
A-----|-------------------------------------10-10----------------------------------|
E-5------5-5-5-5-5-5-0-0-0-0-0-0-5-5-5-5-5-5-0-0-0-0-0-0-5-5-5-5-5-5-0-0-0-0-0-0-5-|
	    pm........| pm........| pm........| pm........| pm........| pm........|   

E----------------------------------------------------------------------------------|
B--7-8---------------|-------------------------------------------------------------|
G------9-------------|-----6-4---------------------6-4---------------------6-4-----|
D---------5h7p5-4----|--4------7-4--6h7p6-4-6---4------7-4--2-2-4-6-----4------7-4-|
A-----------------7--|-------------------------------------------------------------|
E-5-5-5-5-0-0-0-0-0-----2-2-2-2-2-2-9-9-9-9-9-9-2-2-2-2-2-2-9-9-9-9-9-9-2-2-2-2-2-2|
 pm......| pm......|     pm........| pm........| pm........| pm........| pm........|

E----------------------------------------------------------------------------------|
B-----------------4-5------------------|----------------------5--------------------|
G-------------6-6-----6----------------|----6---4-------6---4-------6---4----------|
D-6h7p6-4-6---------------2h4p2-1------|--4---7---6---4---7-------4---7---6--2-2-4-|
A---------------------------------4----|--4---------4-4-----------4----------2-2-4-|
E-9-9-9-9-9-9-2-2-2-2-2-2-9-9-9-9-9-9-----2---------2-2-----------2----------0-0-2-|
   pm........| pm........| pm........| 
						   Riff 1
E----------------------------------------------------------------------------------|
B---------------------5--------------------------|---------------------------------|
G---6---4-------6---4---6----6---4---------------|---------------------------------|
D-4---7---6---4---7--------4---7---6-6h7p6-2-4---|--4-----6---6--7---8--10---------|
A-4---------4-4------------4---------2---2---4---|----7-5-4---4--5---6---8--9--9-9-|
E-2---------2-2------------2---------0---0---2-------------------------------------|
									   pm......

E----------------------------------------------------------------------------------|
B----------------------------------------------------------------------------------|
G----------------------------------------------------------------------------------|
D--------------------------------------------------------11--9--7---7--6--4---2--4-|
A-9--9-9---9--9-9-9--9-9---9--9-9-9--9-9---9--9-9-9--9-9--9--7--5---5--4--2---0--2-|
E----------------------------------------------------------------------------------|
 .......................................................|	

					   end Riff 1   Verse
E----------------------------------------------------------------------------------|
B-----------------------------------------------------|----------------------------|
G-----------------------------------------------------|----------------------------|
D-6---------------------------------------------------|----------------------------|
A-4--4-4-4--4-4---4--4-4-4--4-4---4--4-4-4--4-4---4\--|--4--4-4-4--4-4---4--4-4-4-4|
E----------------------------------------------------------------------------------|
    pm..............................................|   pm.........................

E----------------------------------------------------------------------------------|
B----------------------------------------------------------------------------------|
G----------------------------------------------------------------------------------|
D----------------------------------------------------7--7-7--7---------------------|
A-4-4---4--6--7--4---4--4-4-4--4-4---4--4-4-4--4-4---5--5-5--5---4--4-4-4--4-4---4-|
E-------2--4--5--2-----------------------------------------------------------------|
 .....|             pm............................|               pm...............

E----------------------------------------------------------------------------------|
B----------------------------------------------------------------------------------|
G----------------------------------------------------------------------------------|
D----------------------------------------------------------------------------------|
A--4-4-4--4-4---4--4--4---555555555555555555555-666666666666666666666666-----------|
E---------------2--2--2--------------------------------------------------0000000000|
 ............| 		 pm........................................................

E----------------------------------------------------------------------------------|
B----------------------------------------------------------------------------------|
G----------------------------------------------------------------------------------|
D-----------------------------------------------------------------------7~---------|
A------------------------------------------2222222222222222222222222----5~-55555555|
E-000000-444444444444444444444444444444444-----------------------------------------|
  ...................................................................|    pm.......

									end Verse
E----------------------------------------------------------------------------------|
B----------------------------------------------------------------------------------|
G----------------------------------------------------------------------------------|
D-----------7----------------7--7--7-----9--10--5-------5-------10--5---7~~--------|
A-555555555-5-5555555555555--5--5--5-7---7---8--3---5---3---5----8--3---5~~--------|
E------------------------------------5--------------3-------3----------------------|
  .........| pm............|
 
 (Epius Furor riff:)
E-Gtr.1---------------------------------------------------------9------------------|
B--10----11-11b(13)r11--10----6-----6------10----11-11b(13)r11----10--6------------|
G-Gtr.2-------------------------7-----7---------------------------------7--7-2-----|
D---7-------------------------7-7---7-7-----7-------------------------7-7--7-7--5--|
A---5-----5-------------4-----5-5---5-5-----5-----5--------------4----5-5--5-5----7|
E---------3-------------2-------------------------3--------------2-----------------|

			   8:19 (Acoustic Guitar)
E----------------------------------------------------------------------------------|
B------------------------|--5----5---5----3-3--5---5---5---5---3-3--5---|--5-5-5-5-|
G---Opeara-singer-part---|--5----5---5----4-4--5---5---5---5---4-4--5---|--5-5-5-5-|
D---------with-----------|--7----7---7----5-5--7---7---7---7---5-5--7---|--7-7-7-7-|
A-------Orchestra--------|--7----7---7----5-5--7---7---7---7---5-5--7---|--7-7-7-7-|
E---------------------------5----5---5----3-3--5---5---5---5---3-3--5------5-5-5-5-|

E----------------------------------------------------------------------------------|
B--5-5-5-5--5-5-5-5--3-3--5---5-5-5-5--5-5-5-5--5-5-5-5--3-3--5--|-----------------|
G--5-5-5-5--5-5-5-5--4-4--5---5-5-5-5--5-5-5-5--5-5-5-5--4-4--5--|--5-5--0-0--5-5--|
D--7-7-7-7--7-7-7-7--5-5--7---7-7-7-7--7-7-7-7--7-7-7-7--5-5--7--|--7-7--2-2--7-7--|
A--7-7-7-7--7-7-7-7--5-5--7---7-7-7-7--7-7-7-7--7-7-7-7--5-5--7--|--7-7--2-2--7-7--|
E--5-5-5-5--5-5-5-5--3-3--5---5-5-5-5--5-5-5-5--5-5-5-5--3-3--5-----5-5--0-0--5-5--|

									Dist.
E-----------------------------------------------------------------------Gtr.1------|
B--------------------------|-------5-5-------5-5-------5-5-------5-5--|------------|
G-0-0--5-5--0-0--5-5--0-0--|--2-2--6-6--2-2--6-6--2-2--6-6--2-2--6-6--|---------6--|
D-2-2--7-7--2-2--7-7--2-2--|--4-4--6-6--4-4--6-6--4-4--6-6--4-4--6-6--|-------4---7|
A-2-2--7-7--2-2--7-7--2-2--|--4-4--4-4--4-4--4-4--4-4--4-4--4-4--4-4--|-------4----|
E-0-0--5-5--0-0--5-5--0-0-----2-2-------2-2-------2-2-------2-2---------Gtr.2-2----|

E----------------------------------------------------------------------------------|
B---------------5-------------------------------------------5----------------------|
G-4-------6---4-------6---4---------------6---4-------6---4---6-----6---4----------|
D---6---4---7-------4---7---6--2-2-4----4---7---6---4---7---------4---7---6-6h7p6-2|
A-------4-----------4----------2-2-4----4-----------4-------------4---------2---2--|
E-------2-----------2----------0-0-2----2-----------2-------------2---------0---0--|

E----------------------------------------------------------------------------------|
B------|----------------------5-----------------------------------------5----------|
G------|----6---4-------6---4------6---4-------------6---4-------6---4----6----6---|
D--4~--|--4---7---6---4---7------4---7---6-2-2-4---4---7---6---4---7---------4---7-|
A--4---|--4---------4-4----------4---------2-2-4---4---------4-4-------------4-----|
E--2------2---------2-2----------2---------0-0-2---2---------2-2-------------2-----|

		    Guitar Solo (with Riff 1)
E----------------------------------------9-10b(12)-r10-9---------------------------|
B-----------------|--------------9-10-12-----------------12-10b(12)r-10-10---------|
G-4---------------|-----------10-------------------------------------------9b(11)-r|
D---6-6h7p6-2-4---|--------11------------------------------------------------------|
A-----2---2---4---|----------------------------------------------------------------|
E-----0---0---2--------------------------------------------------------------------|

				 Very Fast
E-------------12-14-12h14p12p10--14--------------13--------------14--------------14|
B--------9-12----------------------14----------14--14----------14--15----------15--|
G9-9-9-9-----------------------------14------14------13------13------14------14----|
D--------------------------------------16--16----------15--15----------16--16------|
A----------------------------------------16--------------16--------------17--------|
E----------------------------------------------------------------------------------|

			    T
Eh17p14--------------14h17h22p17------17h22-17p14------14h17-14p10------10h14-17p14|
B------15----------15-----------19--19-----------15--15-----------12--12-----------|
G--------14------14---------------19---------------16---------------11-------------|
D----------16--16------------------------------------------------------------------|
A------------17--------------------------------------------------------------------|
E----------------------------------------------------------------------------------|

E-------14h17-/22-21-19-17-16p14h16--16--17--19-19b(21)~~~~---\--------------------|
B-15--15-------------------------------------------------------\---|---------------|
G---16----------------------------------------------------------\--|-----Verse-----|
D------------------------------------------------------------------|---------------|
A------------------------------------------------------------------|---------------|
E----------------------------------------------------------------------------------|

 Part IV: The Immortal Fire

  "Sackpipe" arranged for guitar
E--10-----------------------------------13-12-12-10-10-----------10----------------|
B----10-10----13-12-12-10-10----10--10-----------------10--12h13----13p12p10p8h10--|
G*---------12----------------12----------------------------------------------------|
D*---------------------------------------------------------------------------------|
A----------------------------------------------------------------------------------|
E----------------------------------------------------------------------------------|

     x2   Dist.Gtr:					     x8		   Acoustic
E----------------------------------------------------------------------------5---5-|
B-10----|---------------|---------------------------------------|--------|---6---6-|
G------*|---------------|*--7--------7---------------------7---*|--7\----|*--7---7-|
D------*|--7------7-----|*--7--------7--------x-x-x-x-x-x--7---*|--7\----|*--7---7-|
A-------|--5------5-----|---5-x-x-x--5-x-x-x--x-x-x-x-x-x--5----|--5\----|---5---5-|
E----------------------------------------------------------------------------------|
				     
 Repeat and fade out	Flute Riff arranged for guitar:
E---7------5-------|| |--10----13p12p10-----10----13p12p10----12-------------------|
B---8------6-------|| |-----10-----------13----10----------13----12-12--8-10h12p10-|
G---9------7------*|| |------------------------------------------------------------|
D---9------7------*|| |------------------------------------------------------------|
A---7------5-------|| |------------------------------------------------------------|
E------------------|| |------------------------------------------------------------|

E------10----13p12p10----10----13p12p10----15-13-12-10-12-8-10~~---||
B-10------10----------13----10----------13-------------------------||
G------------------------------------------------------------------||
D------------------------------------------------------------------||
A------------------------------------------------------------------||
E------------------------------------------------------------------||

TABLATURE EXPLANATION
======================

T = Tap

-----
--x-- = dead note
-----

b()= Bend

pm..| = Palm mute

\ = Slide down

/ = Slide up

p = Pull off
 
h = Hammer on

~ = Vibrato

|        |
|*	*| = from * to *
|*	*|        *    *
| 	 |
comments
We did not receive enough feedback on this tab! Please rate:
print report bad tab
1 2 3 4 5
I want to post or [tab]
guest
You may want to rate the tab now too:
select rating
Please do not post tabs as comments. Select "correction" instead!