Oops, an error
Loading. Please wait.

Triumph For My Magic Steel Tab

ver2
ver2

Whole song

Interactive

More versions @911Tabs.com
396 views 1 this week
no commentswrite comment
1 2 3 4 5
please rate
Autoscroll
+/-
esc
set tempo
stop
Hey! There's an official Ultimate Guitar app which is ideal
for learning songs when you're away from computer. Get the app
WARNING: You are trying to view
                                    content from Ultimate-Guitar.com
                                    in an unauthorized application,
                                    which is prohibited.

                                    Please use an official Ultimate
                                    Guitar Tabs application for iPhone,
                                    iPad or Android to access legitimate
                                    chords, guitar, bass, and drum tabs
                                    from Ultimate-Guitar.com database.

                                    Type "ultimate guitar tabs" in Apple
                                    App Store's or Android Market's
                                    search to find the application.
--------------------------------------------------------------------------
Rhapsody - Triumph For My Magic Steel
--------------------------------------------------------------------------
Album: Dawn Of Victory
Track Number - 03
Tabbed By: User

E||------------------13--17----|------------------15--18----|
B||--------------15------------|--------------17------------|
G||----------14----------------|----------18----------------|
D||----------------------------|----------------------------|
A||----------------------------|----------------------------|
E||----------------------------|----------------------------|
                                                                   
--------------16--13------|----------13--17~---13--17--15h17p15-13-|
----------------------15--|------15--------------------------------|
--------------------------|--14------------------------------------|
--------------------------|----------------------------------------|
--------------------------|----------------------------------------|
--------------------------|----------------------------------------|
                                                                 
--12h13p12----------------13--17----|------------------15--18----|
-----------15---------15------------|--------------17------------|
------------------14----------------|----------18----------------|
------------------------------------|----------------------------|
------------------------------------|----------------------------|
------------------------------------|----------------------------|
                                                                    
--------------16--13------|----------13--17~---13--17--15h17p15-13-|
----------------------15--|------15--------------------------------|
--------------------------|--14------------------------------------|
--------------------------|----------------------------------------|
--------------------------|----------------------------------------|
--------------------------|----------------------------------------|
                                          
--12-13-12--22----18--22--21--18--17------|
--------------------------------------18--|
------------------------------------------|
------------------------------------------|
------------------------------------------|
------------------------------------------|
                                                   
--13----------17----------13----------17----------|
-----15-14-15----15-14-15----15-14-15----15-14-15-|
--------------------------------------------------|
--------------------------------------------------|
--------------------------------------------------|
--------------------------------------------------|
                                                  
--15----------18----------15----------18----------|
-----17-15-17----17-15-17----17-15-17----17-15-17-|
--------------------------------------------------|
--------------------------------------------------|
--------------------------------------------------|
--------------------------------------------------|
                                                   
--13----------16----------13----------16----------|
-----15-14-15----15-14-15----15-14-15----15-14-15-|
--------------------------------------------------|
--------------------------------------------------|
--------------------------------------------------|
--------------------------------------------------|
                                  
--17----13--17--15h17p15-13-------|
----------------------------17~---|
----------------------------------|
----------------------------------|
----------------------------------|
----------------------------------|
                                                   
--13----------17----------13----------17----------|
-----15-14-15----15-14-15----15-14-15----15-14-15-|
--------------------------------------------------|
--------------------------------------------------|
--------------------------------------------------|
--------------------------------------------------|
                                                   
--12----------15----------12----------15----------|
-----14-12-14----14-12-14----14-12-14----14-12-14-|
--------------------------------------------------|
--------------------------------------------------|
--------------------------------------------------|
--------------------------------------------------|
                                                   
--10----------13----------10----------13----------|
-----12-10-12----12-10-12----12-10-12----12-10-12-|
--------------------------------------------------|
--------------------------------------------------|
--------------------------------------------------|
--------------------------------------------------|
                                                                    
--13----10--13--12h13p12-10-9~---|--17----13--17--15h17p15-13-------|
---------------------------------|----------------------------17~---|
---------------------------------|----------------------------------|
---------------------------------|----------------------------------|
---------------------------------|----------------------------------|
---------------------------------|----------------------------------|
                                                   
--17----------17h22-17p13----------13h18p13h17p13-|
-----18----18-------------15----15----------------|
--------19-------------------14-------------------|
--------------------------------------------------|
--------------------------------------------------|
--------------------------------------------------|
                                                              
--------12------------------------------|--------------------|
--15-------14----15-10------------------|--------------------|
-----14-------14--------10--------------|--------------------|
----------------------------12----------|--------------------|
--------------------------------12------|--------------------|
------------------------------------13--|--10----------------|
                                                          
-------------------|
-------------------|
--5----------------|
--5----------------|
--3----------------|
-------------------|

VERSE
----------------------|----------------------|----------------------|
--------6-------------|--------6-------------|--------5-------------|
-----7-----7----------|-----7-----7----------|-----------5----------|
--0-------------------|----------------------|-----5----------------|
----------------------|----------------------|--3-------------------|
----------------------|--7-------------------|----------------------|
                                                                     
----------------------|----------------------|----------------------|
--------3-------------|--------2-------------|--------3-------------|
-----------3----------|-----------2----------|-----------3----------|
-----3----------------|-----2----------------|-----3----------------|
--1-------------------|--0-------------------|--1-------------------|
----------------------|----------------------|----------------------|
                                                                         
----------------------|--------------------------|----------------------|
--------5-------------|--------5-----6p-5--------|--------6-------------|
-----------5----------|-----7-----7--------7-----|-----7-----7----------|
-----5----------------|--0--------------------7--|--0-------------------|
--3-------------------|--------------------------|----------------------|
----------------------|--------------------------|----------------------|
                                                                     
----------------------|----------------------|----------------------|
--------6-------------|--------5-------------|--------3-------------|
-----7-----7----------|-----------5----------|-----------3----------|
----------------------|-----5----------------|-----3----------------|
----------------------|--3-------------------|--1-------------------|
--7-------------------|----------------------|----------------------|
                                                                     
----------------------|----------------------|----------------------|
--------2-------------|--------3-------------|--------5-------------|
-----------2----------|-----------3----------|-----------5----------|
-----2----------------|-----3----------------|-----5----------------|
--0-------------------|--1-------------------|--3-------------------|
----------------------|----------------------|----------------------|
                                                      
--------------------------|
--------5-----6p-5--------|
-----7-----7--------7-----|
--0--------------------7--|
--------------------------|
--------------------------|


BRIDGE
--------------------------|
--------------------------|
--------------------------|
--5--5--7--8--------------|
--------------3--3--5--7--|
--------------------------|
                                                      
---------------------------|-------------------------|
---------------------------|-------------------------|
---------------------------|-------------------------|
--3--3--5--7---------------|---------------8----8----|
---------------------------|--6--6--8--10--7----7----|
--------------6--6--8--10--|-------------------------|
                                                      
--------------------------|--------------------------|
--------------------------|--------------------------|
--------------------------|-----5--------------------|
-----------------7--5--8--|--7-----8--7--5--8--7--4--|
--5--5--7--5--9-----------|--------------------------|
--------------------------|--------------------------|
                                                       
--------------------------|---------------------------|
--------------------------|---------------------------|
--------------------------|---------------------------|
--5--5--7--8--------------|--3--3--5--7---------------|
--------------3--3--5--7--|---------------------------|
--------------------------|--------------6--6--8--10--|
                                                     
-------------------------|--------------------------|
-------------------------|--------------5-----6-----|
-------------------------|--------7-----------------|
---------------8----8----|-----7-----7-----7-----7--|
--6--6--8--10--7----7----|--5-----------------------|
-------------------------|--------------------------|
                                                                       
---------------------------|
---------------------------|
---------------------------|
--7--7-7-5-----5-----------|
------------8-----8--5--4--|
---------------------------|
CHORUS    X2                                                                  
--------------------|---------------------|
--------------------|---------------------|
--7------------5----|--3------------------|
--7------------5----|--3------------------|
--5------------3----|--1------------------|
--------------------|---------------3--5--|
                                                                 
---------------------|----------------------|-------------------|
---------------------|----------------------|-------------------|
--5------------------|----------------------|--3----------------|
--5------------------|--3-------------------|--3----------------|
--3------------------|--3-------------------|--1----------------|
---------------3--5--|--1----------1--3--5--|-------------------|
                                                                 
-------------------|-------------------|------------------------|
-------------------|-------------------|-------------5----------|
-------------------|--5----------------|-------------5----------|
--3----------------|--5----------------|--5----------5----------|
--3----------------|--3----------------|--3--3-3-3-3-3----------|
--1----------------|-------------------|------------------------|

GUITAR SOLO1
--10p6-----10p6-----15--10----------|--17p13-------17p13-------22--17----------|
-------8--------8-----------11------|--------15----------15------------18------|
---------7--------7-------------12--|-----------14----------14-------------19--|
------------------------------------|------------------------------------------|
------------------------------------|------------------------------------------|
------------------------------------|------------------------------------------|
                                                                           
--10p6-------6h10-6-15p10----------10-15-10-|--17--15--13------------------|
-------8---8--------------11----11----------|--------------17--15b---15----|
---------7-------------------12-------------|------------------------------|
--------------------------------------------|------------------------------|
--------------------------------------------|------------------------------|
--------------------------------------------|------------------------------|


                                                                             
--10p6-----10p6-----15--10----------|--17p13-------17p13-------22--17----------|
-------8--------8-----------11------|--------15----------15------------18------|
---------7--------7-------------12--|-----------14----------14-------------19--|
------------------------------------|------------------------------------------|
------------------------------------|------------------------------------------|
------------------------------------|------------------------------------------|
                                                                             
--22-18----------18h22p18-17-13----------13/18--|--17--15--------------------|
--------20----20----------------15----15--------|----------18--17--15--------|
-----------19----------------------14-----------|----------------------------|
------------------------------------------------|----------------------------|
------------------------------------------------|----------------------------|
------------------------------------------------|----------------------------|

REPEAT INTO RIFFS FIRST 9 PARTS THEN PLAY THIS AS LONG AS THE CHOIR STARTS
------------------------12-13-|--15--13--12--18--17-18-15-18----18----18-|
--15------18-17-15------------|------------------------------18----17----|
------------------------------|------------------------------------------|
------------------------------|------------------------------------------|
------------------------------|------------------------------------------|
------------------------------|------------------------------------------|
                                                                              
------------------------12-13-|--15--17--20-18-17----18-17-------17----------|
--14------17-15-14------------|-------------------20-------20-18----20-18-17-|
------------------------------|----------------------------------------------|
------------------------------|----------------------------------------------|
------------------------------|----------------------------------------------|
------------------------------|----------------------------------------------|
                                                                         
------------------------12-13-|--15--13--12--18--17-18-15-18----18----18-|
--15------18-17-15------------|------------------------------18----17----|
------------------------------|------------------------------------------|
------------------------------|------------------------------------------|
------------------------------|------------------------------------------|
------------------------------|------------------------------------------|
                                                                              
------------------------12-13-|--15--17--20-18-17----18-17-------17----------||
--14------17-15-14------------|-------------------20-------20-18----20-18-17-||
------------------------------|----------------------------------------------||
------------------------------|----------------------------------------------||
------------------------------|----------------------------------------------||
------------------------------|----------------------------------------------||
RIFF DURING CHOIR    X2                                                         
-------------------|------------------|-------------------|
-------------------|------------------|-------------------|
--7----------------|------------------|-------------------|
--7----------------|------------------|--4----------------|
--5----------------|------------------|--4----------------|
-------------------|------------------|--2----------------|
                                                                              
------------------|-------------------|------------------|-------------------|
------------------|-------------------|------------------|-------------------|
------------------|--5----------------|------------------|-------------------|
------------------|--5----------------|------------------|--2----------------|
------------------|--3----------------|------------------|--2----------------|
------------------|-------------------|------------------|--0----------------|
KEEP PLAYING THIS TILL THE SOLO BEGINS
-------------------------|-------------------------|
-------------------------|-------------------------|
-------------------------|-------------------------|
-------------------------|--5----------------------|
--2----------------------|--3----------------------|
--0------------3----2----|---------------7----5----|
                                                                              
-------------------------|-------------------------|-------------------------|
-------------------------|-------------------------|-------------------------|
-------------------------|-------------------------|-------------------------|
-------------------------|--7----------------------|-------------------------|
--5----------------------|--5----------------------|--2----------------------|
--3------------5----7----|--5------------3----2----|--0------------3----2----|
                                                                          
-------------------------|-------------------------|--------------------
-------------------------|-------------------------|--------------------
-------------------------|-------------------------|--------------------
--5----------------------|-------------------------|--7--------7--------
--3----------------------|--5----------------------|--5--------5--------
---------------7----5----|--3--------5--------7----|--5--------5--------




GUITAR SOLO BEFORE THE LST BRIDGES AND CHROUSES

--------------------------|------------------------|
--------------------13----|--15--------13----15----|
--12------14--15----------|------------------------|
--------------------------|------------------------|
--------------------------|------------------------|
--------------------------|------------------------|
                                                        
------------------------------|------------------------|
--16------18--16--15--13--16--|--15--------13----15----|
------------------------------|------------------------|
------------------------------|------------------------|
------------------------------|------------------------|
------------------------------|------------------------|
                                                                  
------------15-15---14h-15p-14--|--------------------------------|
--16----------------------------|--15--------16-16---15h-16p-15--|
--------------------------------|--------------------------------|
--------------------------------|--------------------------------|
--------------------------------|--------------------------------|
--------------------------------|--------------------------------|
                                                                               
------------------------------|--------------------|--------------------15----|
--14--------------------------|--------------------|--15------17--18----------|
----------15--14--12--11--12--|--14r---------------|--------------------------|
------------------------------|--------------------|--------------------------|
------------------------------|--------------------|--------------------------|
------------------------------|--------------------|--------------------------|
                                                        
--17--------15----17----|--18------20--18--17--15--18--|
------------------------|------------------------------|
------------------------|------------------------------|
------------------------|------------------------------|
------------------------|------------------------------|
------------------------|------------------------------|
                                                          
--17--------15----17----|--18--------22-22---21--22--21--|
------------------------|--------------------------------|
------------------------|--------------------------------|
------------------------|--------------------------------|
------------------------|--------------------------------|
------------------------|--------------------------------|
                                                                            
--17--------18-18---17h18p17--|--16--------------------------|------------||
------------------------------|----------18--17--15--14--15--|--17--------||
------------------------------|------------------------------|------------||
------------------------------|------------------------------|------------||
------------------------------|------------------------------|------------||
------------------------------|------------------------------|------------||



| /  slide up
| \  slide down
| h  hammer-on
| p  pull-off
| ~  vibrato
| +  harmonic
| x  Mute note
=================
comments
We did not receive enough feedback on this tab! Please rate:
print report bad tab
1 2 3 4 5
I want to post or [tab]
guest
You may want to rate the tab now too:
select rating
Please do not post tabs as comments. Select "correction" instead!