Oops, an error
Loading. Please wait.

Trolls In The Dark Tab

ver2
ver2

Whole song

Interactive

More versions @911Tabs.com
1,283 views 1 this week
no commentswrite comment
1 2 3 4 5
please rate
Autoscroll
+/-
esc
set tempo
stop
Contributor
Hey! There's an official Ultimate Guitar app which is ideal
for learning songs when you're away from computer. Get the app
WARNING: You are trying to view
                                    content from Ultimate-Guitar.com
                                    in an unauthorized application,
                                    which is prohibited.

                                    Please use an official Ultimate
                                    Guitar Tabs application for iPhone,
                                    iPad or Android to access legitimate
                                    chords, guitar, bass, and drum tabs
                                    from Ultimate-Guitar.com database.

                                    Type "ultimate guitar tabs" in Apple
                                    App Store's or Android Market's
                                    search to find the application.
Lead Guitar (Luca Turilli)

E||------------------|------|------|------|------|------|------|------|------|
B||------------------|------|------|------|------|------|------|------|------|
G||------------------|------|------|------|------|------|------|------|------|
D||------------------|------|------|------|------|------|------|------|------|
A||------------------|------|------|------|------|------|------|------|------|
E||------------------|------|------|------|------|------|------|------|------|


                                                                               
------|------|------|------|------|------|------|--------------------8--------|
------|------|------|------|------|------|------|-----10--9--10--12-------12--|
------|------|------|------|------|------|------|--9--------------------------|
------|------|------|------|------|------|------|-----------------------------|
------|------|------|------|------|------|------|-----------------------------|
------|------|------|------|------|------|------|-----------------------------|


                                                            
-----------------------------|--------------------8--------|
--10--9--10--11--9--10-------|-----10--9--10--12-------12--|
--------------------------9--|--9--------------------------|
-----------------------------|-----------------------------|
-----------------------------|-----------------------------|
-----------------------------|-----------------------------|


                                                                   
----------------------------|-----------10-12-13------12--10------|
--10--9--10--11--9--10~-----|--10-12-13-----------------------13--|
----------------------------|-------------------------------------|
----------------------------|-------------------------------------|
----------------------------|-------------------------------------|
----------------------------|-------------------------------------|


                                                                    
--------12~-----10----------|------13--12h13h12------12--11h12h11--|
--11----------------13--12--|--10----------------10----------------|
----------------------------|--------------------------------------|
----------------------------|--------------------------------------|
----------------------------|--------------------------------------|
----------------------------|--------------------------------------|


                                                                           
------11--11h12h11--------------------------|--------------------8--------|
--10---------------13-12h13h12-9--10~-------|-----10--9--10--12-------12--|
--------------------------------------------|--9--------------------------|
--------------------------------------------|-----------------------------|
--------------------------------------------|-----------------------------|
--------------------------------------------|-----------------------------|


                                                            
-----------------------------|--------------------8--------|
--10--9--10--11--9--10-------|-----10--9--10--12-------12--|
--------------------------9--|--9--------------------------|
-----------------------------|-----------------------------|
-----------------------------|-----------------------------|
-----------------------------|-----------------------------|


                                                                   
----------------------------|-----------10-12-13------12--10------|
--10--9--10--11--9--10~-----|--10-12-13-----------------------13--|
----------------------------|-------------------------------------|
----------------------------|-------------------------------------|
----------------------------|-------------------------------------|
----------------------------|-------------------------------------|


                                                                    
--------12~-----10----------|------13--12h13h12------12--11h12h11--|
--11----------------13--12--|--10----------------10----------------|
----------------------------|--------------------------------------|
----------------------------|--------------------------------------|
----------------------------|--------------------------------------|
----------------------------|--------------------------------------|


                                                                               
------11--11h12h11---------------------------||---5--4--5--7--8h5-----7h4-----|
--10---------------13-12h13h12-9--10~-----5--||-------------------5-------5---|
---------------------------------------------||*--------------------5-------4-|
---------------------------------------------||*------------------------------|
---------------------------------------------||-------------------------------|
---------------------------------------------||-------------------------------|


                                      
--8h5-----12h8------10h7-----------7-|
------5--------10--------8-------8---|
--------5---------9--------7---7-----|
-----------------------------9-------|
-------------------------------------|
-------------------------------------|


                                           
--10------10--12--13h10-------10----------|
------13----------------10-------10-------|
---------------------------10-------10----|
---------------------------------------12-|
------------------------------------------|
------------------------------------------|


                                                 
--17h13-------13h10-------12h8--------------8--||
--------15----------10---------10--------10----||
-----------14----------10---------9----9------*||
------------------------------------10--------*||
-----------------------------------------------||
-----------------------------------------------||


                                             
--13----------17----------17-20-17----------|
-----15----15----17----17----------17-------|
--------14----------17----------------17~---|
--------------------------------------------|
--------------------------------------------|
--------------------------------------------|


                                         
|---12------12--14--15h12-----------15--|
|-------15----------------12----12------|
|*---------------------------12---------|
|*--------------------------------------|
|---------------------------------------|
|---------------------------------------|


                                                                            
--14h10-----------14--12h9----------12--|--11h7--------11--15--12------15--|
--------10----10-----------10---10------|-------7---7--------------12------|
-----------11-----------------9---------|---------8------------------------|
----------------------------------------|----------------------------------|
----------------------------------------|----------------------------------|
----------------------------------------|----------------------------------|


                                                      
--14----------15--14h15h14h12---------|--12---------||
------15----------------------14--16--|-------------||
----------14--------------------------|------------*||
--------------------------------------|------------*||
--------------------------------------|-------------||
--------------------------------------|-------------||


                                                                      
---5--4--5--7--8h5-----7h4-----|--8h5-----12h8------10h7-----------7-|
-------------------5-------5---|------5--------10--------8-------8---|
*--------------------5-------4-|--------5---------9--------7---7-----|
*------------------------------|-----------------------------9-------|
-------------------------------|-------------------------------------|
-------------------------------|-------------------------------------|


                                           
--10------10--12--13h10-------10----------|
------13----------------10-------10-------|
---------------------------10-------10----|
---------------------------------------12-|
------------------------------------------|
------------------------------------------|


                                                 
--17h13-------13h10-------12h8--------------8--||
--------15----------10---------10--------10----||
-----------14----------10---------9----9------*||
------------------------------------10--------*||
-----------------------------------------------||
-----------------------------------------------||


                                             
--13----------17----------17-20-17----------|
-----15----15----17----17----------17-------|
--------14----------17----------------17~---|
--------------------------------------------|
--------------------------------------------|
--------------------------------------------|


                                                   
-----17-20-19/17-20-19-20-17-20-19-17/15-19-17-19-|
--17----------------------------------------------|
--------------------------------------------------|
--------------------------------------------------|
--------------------------------------------------|
--------------------------------------------------|


                                                   
--15-19-17-15/13-17-15-17-13-17-15-17/12-15-13-15-|
--------------------------------------------------|
--------------------------------------------------|
--------------------------------------------------|
--------------------------------------------------|
--------------------------------------------------|


                                                  
--12-15-13-15/10-13-12-13-------------8-12-10-12-|
--------------------------12-15-13-12------------|
-------------------------------------------------|
-------------------------------------------------|
-------------------------------------------------|
-------------------------------------------------|


                                                                      
--------------10-13-12-13--------------------|-----------------------|
--10-13-12-10-------------12-15-13-12/10-----|-----------------------|
------------------------------------------9--|-----------------------|
---------------------------------------------|--10--9----------------|
---------------------------------------------|---------12~-----------|
---------------------------------------------|-----------------------|


                                                            
--------------------8--------|-----------------------------|
-----10--9--10--12-------12--|--10--9--10--11--9--10-------|
--9--------------------------|--------------------------9--|
-----------------------------|-----------------------------|
-----------------------------|-----------------------------|
-----------------------------|-----------------------------|


                                                           
--------------------8--------|----------------------------|
-----10--9--10--12-------12--|--10--9--10--11--9--10~-----|
--9--------------------------|----------------------------|
-----------------------------|----------------------------|
-----------------------------|----------------------------|
-----------------------------|----------------------------|


                                                                   
-----------10-12-13------12--10------|--------12~-----10----------|
--10-12-13-----------------------13--|--11----------------13--12--|
-------------------------------------|----------------------------|
-------------------------------------|----------------------------|
-------------------------------------|----------------------------|
-------------------------------------|----------------------------|


                                       
------13--12h13h12------12--11h12h11--|
--10----------------10----------------|
--------------------------------------|
--------------------------------------|
--------------------------------------|
--------------------------------------|


                                                                           
------11--11h12h11--------------------------|--------------------8--------|
--10---------------13-12h13h12-9--10~-------|-----10--9--10--12-------12--|
--------------------------------------------|--9--------------------------|
--------------------------------------------|-----------------------------|
--------------------------------------------|-----------------------------|
--------------------------------------------|-----------------------------|


                                                            
-----------------------------|--------------------8--------|
--10--9--10--11--9--10-------|-----10--9--10--12-------12--|
--------------------------9--|--9--------------------------|
-----------------------------|-----------------------------|
-----------------------------|-----------------------------|
-----------------------------|-----------------------------|


                                                                   
----------------------------|-----------10-12-13------12--10------|
--10--9--10--11--9--10~-----|--10-12-13-----------------------13--|
----------------------------|-------------------------------------|
----------------------------|-------------------------------------|
----------------------------|-------------------------------------|
----------------------------|-------------------------------------|


                                                                    
--------12~-----10----------|------13--12h13h12------12--11h12h11--|
--11----------------13--12--|--10----------------10----------------|
----------------------------|--------------------------------------|
----------------------------|--------------------------------------|
----------------------------|--------------------------------------|
----------------------------|--------------------------------------|


                                                                               
------11--11h12h11---------------------------||---5--4--5--7--8h5-----7h4-----|
--10---------------13-12h13h12-9--10~-----5--||-------------------5-------5---|
---------------------------------------------||*--------------------5-------4-|
---------------------------------------------||*------------------------------|
---------------------------------------------||-------------------------------|
---------------------------------------------||-------------------------------|


                                      
--8h5-----12h8------10h7-----------7-|
------5--------10--------8-------8---|
--------5---------9--------7---7-----|
-----------------------------9-------|
-------------------------------------|
-------------------------------------|


                                           
--10------10--12--13h10-------10----------|
------13----------------10-------10-------|
---------------------------10-------10----|
---------------------------------------12-|
------------------------------------------|
------------------------------------------|


                                                 
--17h13-------13h10-------12h8--------------8--||
--------15----------10---------10--------10----||
-----------14----------10---------9----9------*||
------------------------------------10--------*||
-----------------------------------------------||
-----------------------------------------------||


                                             
--13----------17----------17-20-17----------|
-----15----15----17----17----------17-------|
--------14----------17----------------17~---|
--------------------------------------------|
--------------------------------------------|
--------------------------------------------|


                                         
|---12------12--14--15h12-----------15--|
|-------15----------------12----12------|
|*---------------------------12---------|
|*--------------------------------------|
|---------------------------------------|
|---------------------------------------|


                                                                           
--14h10-----------14--12h9---------12--|--11h7--------11--15--12------15--|
--------10----10-----------10---9------|-------7---7--------------12------|
-----------11-----------------9--------|---------8------------------------|
---------------------------------------|----------------------------------|
---------------------------------------|----------------------------------|
---------------------------------------|----------------------------------|


                                                      
--14----------15--14h15h14h12---------|--12---------||
------15----------------------14--16--|-------------||
----------14--------------------------|------------*||
--------------------------------------|------------*||
--------------------------------------|-------------||
--------------------------------------|-------------||


                                                                      
---5--4--5--7--8h5-----7h4-----|--8h5-----12h8------10h7-----------7-|
-------------------5-------5---|------5--------10--------8-------8---|
*--------------------5-------4-|--------5---------9--------7---7-----|
*------------------------------|-----------------------------9-------|
-------------------------------|-------------------------------------|
-------------------------------|-------------------------------------|


                                           
--10------10--12--13h10-------10----------|
------13----------------10-------10-------|
---------------------------10-------10----|
---------------------------------------12-|
------------------------------------------|
------------------------------------------|


                                                 
--17h13-------13h10-------12h8--------------8--||
--------15----------10---------10--------10----||
-----------14----------10---------9----9------*||
------------------------------------10--------*||
-----------------------------------------------||
-----------------------------------------------||


                                             
--13----------17----------17-20-17----------|
-----15----15----17----17----------17-------|
--------14----------17----------------17~---|
--------------------------------------------|
--------------------------------------------|
--------------------------------------------|


                                                   
-----17-20-19/17-20-19-20-17-20-19-17/15-19-17-19-|
--17----------------------------------------------|
--------------------------------------------------|
--------------------------------------------------|
--------------------------------------------------|
--------------------------------------------------|


                                                   
--15-19-17-15/13-17-15-17-13-17-15-17/12-15-13-15-|
--------------------------------------------------|
--------------------------------------------------|
--------------------------------------------------|
--------------------------------------------------|
--------------------------------------------------|


                                                  
--12-15-13-15/10-13-12-13-------------8-12-10-12-|
--------------------------12-15-13-12------------|
-------------------------------------------------|
-------------------------------------------------|
-------------------------------------------------|
-------------------------------------------------|


                                                                      
--------------10-13-12-13--------------------|-----------------------|
--10-13-12-10-------------12-15-13-12/10-----|-----------------------|
------------------------------------------9--|-----------------------|
---------------------------------------------|--10--9----------------|
---------------------------------------------|---------12~-----------|
---------------------------------------------|-----------------------|


                                                                             
-------------------------|-----------------------|--------------------------|
-------------------------|-----------------------|--------------------------|
-------------------------|-----------------------|------5-------------------|
-------------------------|-----------------------|---------9-7-5------------|
-------------------------|-----------------------|---------------8-7-5-7----|
--5----4-5-4--1----0--0--|----0--1----4----5--5--|---------------------5----|


  
------------------||
------------------||
------------------||
------------------||
------------------||
------------------||

Rhythm Guitar (Luca Turilli)

E||------------------|------|------|------|------|------|------|------|------|
B||------------------|------|------|------|------|------|------|------|------|
G||------------------|------|------|------|------|------|------|------|------|
D||------------------|------|------|------|------|------|------|------|------|
A||------------------|------|------|------|------|------|------|------|------|
E||------------------|------|------|------|------|------|------|------|------|


                                                                      
------|------|------|------|------|------|------|--------------------|
------|------|------|------|------|------|------|--------------------|
------|------|------|------|------|------|------|--------------------|
------|------|------|------|------|------|------|--2--7--------------|
------|------|------|------|------|------|------|--2--7--------------|
------|------|------|------|------|------|------|--0--5--------------|


                                                                 
---------------------|--------------------|---------------------|
---------------------|--------------------|---------------------|
---------------------|--------------------|---------------------|
---------------------|--2--7--------------|---------------------|
---------------------|--2--7--------------|---------------------|
----4----6----5~-----|--0--5--------------|----4----6----5~-----|


                                                             
-------------------|-------------------|--------------------|
-------------------|-------------------|--------------------|
-------------------|-------------------|------9--------8----|
------8------------|------7------------|------9--------8----|
------8------------|------7------------|------7--------6----|
------6------------|------5------------|--------------------|


                                                                                
-------------------------|--------------------------|--------------------------|
-------------------------|--------------------------|--------------------------|
------7------------------|--------------------------|--------------------------|
------7----5----7--------|--------------------------|--------------------------|
------5----5----7--------|-----7-----7-----7-----7--|-----5-----5-----7-----7--|
-----------3----5--------|--5-----5-----5-----5-----|--4-----7-----5-----5-----|


                                                      
--------------------------|--------------------------|
--------------------------|--------------------------|
--------------------------|--------------------------|
--------------------------|--------------------------|
-----7-----7-----7-----7--|-----5-----5-----7-----7--|
--5-----5-----5-----5-----|--4-----7-----5-----5-----|


                                                      
--------------------------|--------------------------|
--------------------------|--------------------------|
--------------------------|--------------------------|
--------------------------|--------------------------|
-----8-----8-----8-----8--|-----7-----7-----7-----7--|
--6-----6-----6-----6-----|--5-----5-----5-----5-----|


                                                                            
--------------------------|-----------------------||-----------------------|
--------------------------|-----------------------||-----------------------|
--------------------------|-----------------------||*----------------------|
-----9-----9-----8-----8--|-----7-----------------||*----------------------|
--7-----7-----6-----6-----|--5--------5--7--------||-----------------------|
--------------------------|--------3-----5--------||---5~---0~---5----4----|


                                                                       
----------------------|----------------------|-----------------------||
----------------------|----------------------|-----------------------||
----------------------|----------------------|----------------------*||
----------------------|----------------------|-------3----2---------*||
-------3----2---------|--5---------5---------|--5--------------3-----||
--5--------------3----|-------5---------5----|-----------------------||


                                                                     
----------------------||----------------------|---------------------|
----------------------||----------------------|---------------------|
----------------------||*------------9--------|--7------------------|
-------3----2---------||*------------9--------|--7--------7---------|
--5--------------3----||-------------7--------|--5--------7---------|
----------------------||---0----5-------------|-----------5----3----|


                                                         
--------------------|---------------------|------------||
--------------------|---------------------|------------||
-----------9--------|--7--------8---------|-----------*||
--4--------9--------|--7--------9---------|--2--------*||
--4--------7--------|--5--------6---------|--2---------||
--2-----------------|----------------7----|--0---------||


                                                                      
-----------------------|----------------------|----------------------|
-----------------------|----------------------|----------------------|
*----------------------|----------------------|----------------------|
*----------------------|----------------------|----------------------|
-----------------------|-------3----2---------|--5---------5---------|
---5~---0~---5----4----|--5--------------3----|-------5---------5----|


                                                                      
-----------------------||----------------------|---------------------|
-----------------------||----------------------|---------------------|
----------------------*||----------------------|--10--------9--------|
-------3----2---------*||-------3----2---------|--10--------9--------|
--5--------------3-----||--5--------------3----|--8---------7--------|
-----------------------||----------------------|---------------------|


                                                                  
--------------------|----------------------|---------------------|
--------------------|----------------------|---------------------|
--7--------5--------|----------------------|---------------------|
--7--------5--------|--3---------2---------|--3---------7--------|
--5--------3--------|--5----5----3----3----|--5----5----7--------|
--------------------|-------7---------5----|-------7----5--------|


                                                               
-------------------|--------------------|---------------------|
-------------------|--------------------|---------------------|
-------------------|--------------------|---------------------|
------7------------|--2--7--------------|---------------------|
------7------------|--2--7--------------|---------------------|
------5------------|--0--5--------------|----4----6----5~-----|


                                                               
--------------------|---------------------|-------------------|
--------------------|---------------------|-------------------|
--------------------|---------------------|-------------------|
--2--7--------------|---------------------|------8------------|
--2--7--------------|---------------------|------8------------|
--0--5--------------|----4----6----5~-----|------6------------|


                                                                   
-------------------|--------------------|-------------------------|
-------------------|--------------------|-------------------------|
-------------------|------9--------8----|------7------------------|
------7------------|------9--------8----|------7----5----7--------|
------7------------|------7--------6----|------5----5----7--------|
------5------------|--------------------|-----------3----5--------|


                                                      
--------------------------|--------------------------|
--------------------------|--------------------------|
--------------------------|--------------------------|
--------------------------|--------------------------|
-----7-----7-----7-----7--|-----5-----5-----7-----7--|
--5-----5-----5-----5-----|--4-----7-----5-----5-----|


                                                      
--------------------------|--------------------------|
--------------------------|--------------------------|
--------------------------|--------------------------|
--------------------------|--------------------------|
-----7-----7-----7-----7--|-----5-----5-----7-----7--|
--5-----5-----5-----5-----|--4-----7-----5-----5-----|


                                                      
--------------------------|--------------------------|
--------------------------|--------------------------|
--------------------------|--------------------------|
--------------------------|--------------------------|
-----8-----8-----8-----8--|-----7-----7-----7-----7--|
--6-----6-----6-----6-----|--5-----5-----5-----5-----|


                                                                            
--------------------------|-----------------------||-----------------------|
--------------------------|-----------------------||-----------------------|
--------------------------|-----------------------||*----------------------|
-----9-----9-----8-----8--|-----7-----------------||*----------------------|
--7-----7-----6-----6-----|--5--------5--7--------||-----------------------|
--------------------------|--------3-----5--------||---5~---0~---5----4----|


                                                                       
----------------------|----------------------|-----------------------||
----------------------|----------------------|-----------------------||
----------------------|----------------------|----------------------*||
----------------------|----------------------|-------3----2---------*||
-------3----2---------|--5---------5---------|--5--------------3-----||
--5--------------3----|-------5---------5----|-----------------------||


                                                                     
----------------------||----------------------|---------------------|
----------------------||----------------------|---------------------|
----------------------||*------------9--------|--7------------------|
-------3----2---------||*------------9--------|--7--------7---------|
--5--------------3----||-------------7--------|--5--------7---------|
----------------------||---0----5-------------|-----------5----3----|


                                                         
--------------------|---------------------|------------||
--------------------|---------------------|------------||
-----------9--------|--7--------8---------|-----------*||
--4--------9--------|--7--------9---------|--2--------*||
--4--------7--------|--5--------6---------|--2---------||
--2-----------------|----------------7----|--0---------||


                                                                      
-----------------------|----------------------|----------------------|
-----------------------|----------------------|----------------------|
*----------------------|----------------------|----------------------|
*----------------------|----------------------|----------------------|
-----------------------|-------3----2---------|--5---------5---------|
---5~---0~---5----4----|--5--------------3----|-------5---------5----|


                                                                      
-----------------------||----------------------|---------------------|
-----------------------||----------------------|---------------------|
----------------------*||----------------------|--10--------9--------|
-------3----2---------*||-------3----2---------|--10--------9--------|
--5--------------3-----||--5--------------3----|--8---------7--------|
-----------------------||----------------------|---------------------|


                                                                  
--------------------|----------------------|---------------------|
--------------------|----------------------|---------------------|
--7--------5--------|----------------------|---------------------|
--7--------5--------|--3---------2---------|--3---------7--------|
--5--------3--------|--5----5----3----3----|--5----5----7--------|
--------------------|-------7---------5----|-------7----5--------|


                                                              
-------------------|--------------------|--------------------|
-------------------|--------------------|--------------------|
-------------------|--------------------|--------------------|
------7------------|--------------------|--------------------|
------7------------|--------------------|--------------------|
------5------------|--------------0--0--|--------------5--5--|


                      
-------------------|------------------||
-------------------|------------------||
-------------------|------------------||
-------------------|------------------||
--------------7----|------------------||
--------------5----|------------------||
comments
We did not receive enough feedback on this tab! Please rate:
print report bad tab
1 2 3 4 5
I want to post or [tab]
guest
You may want to rate the tab now too:
select rating
Please do not post tabs as comments. Select "correction" instead!