Oops, an error
Loading. Please wait.

Unholy Warcry Tab

9,037 views 12 this week
1 commentread comment
1 2 3 4 5
excellent!
x 5
add to favorites launch autoscroll
font size
0
reset
Autoscroll
+/-
esc
set tempo
stop
WARNING: You are trying to view
                                    content from Ultimate-Guitar.com
                                    in an unauthorized application,
                                    which is prohibited.

                                    Please use an official Ultimate
                                    Guitar Tabs application for iPhone,
                                    iPad or Android to access legitimate
                                    chords, guitar, bass, and drum tabs
                                    from Ultimate-Guitar.com database.

                                    Type "ultimate guitar tabs" in Apple
                                    App Store's or Android Market's
                                    search to find the application.
----------------------------------------------------------------------------
		Unholy Warcry solo tab - Rhapsody
----------------------------------------------------------------------------

Tabbed by:User
Album: Symphony Of Enchanted Lands pt.2 -The Dark Secret-
Tuning: Standard tuning E,A,D,G,B,E



E||----------------------12-15-12p-8---------8h-12p-8-|--9p-6-------6h-9p-6-9-10------------------||
B||-------------------12-------------10---10----------|-------7---7--------------12---------------||
G||*---------------12-------------------9-------------|---------6-------------------11-----------*||
D||*------------14------------------------------------|--------------------------------12-9------*||
A||----------14---------------------------------------|-------------------------------------9-----||
E||---12h-15------------------------------------------|---------------------------------------10--||

-------------------15-19-17p-14----------14h-17p-14-|15p-12----------12h-15p-12-14---------------------
----------------15--------------15----15------------|-------14----14---------------15------------------
-------------16--------------------14---------------|----------15---------------------16---------------
----------17----------------------------------------|------------------------------------17------------
-------17-------------------------------------------|---------------------------------------17---------
15h-19----------------------------------------------|------------------------------------------17-15-10

---------------------12-15-12p-8---------8h-12p-8-|--9p-6-------6h-9p-6-10p-6-----7p-2-----|
------------------12-------------10---10----------|-------7---7---------------7--------2---|
---------------12-------------------9-------------|---------6-------------------7--------4-|
------------14------------------------------------|----------------------------------------|
---------14---------------------------------------|----------------------------------------|
--12h-15------------------------------------------|----------------------------------------|


	                                               triols 8th note
--14p-10-------10p-7-----19p-14-------14p-10-------|--14--12--10--------------15p-10-------10p-6-----|
---------12----------7----------15-----------12----|--------------14--12--11---------11----------8---|
------------11---------7-----------16-----------11-|------------------------------------12---------7-|
---------------------------------------------------|-------------------------------------------------|
---------------------------------------------------|-------------------------------------------------|
---------------------------------------------------|-------------------------------------------------|

	                                                    triols 8th note
--18p-15-------15p-10-------22p-18-------15p-10-------|--18--15------15----------10p-6-----7p-2-----|
---------15-----------11-----------20-----------11----|----------15------15------------7--------2---|
------------15-----------12-----------19-----------12-|----------------------15----------7--------4-|
------------------------------------------------------|---------------------------------------------|
------------------------------------------------------|---------------------------------------------|
------------------------------------------------------|---------------------------------------------|

	                                               triols 8th note
--14p-10-------10p-7-----19p-14-------14p-10-------|--14--12--10--------------15p-10-------10p-6-----|
---------12----------7----------15-----------12----|--------------14--12--11---------11----------8---|
------------11---------7-----------16-----------11-|------------------------------------12---------7-|
---------------------------------------------------|-------------------------------------------------|
---------------------------------------------------|-------------------------------------------------|
---------------------------------------------------|-------------------------------------------------|

--18p-15-------15p-10-------22--18----------|------------19p-14----------14h-19p-14-|
---------15-----------11------------20------|--20---------------15----15------------|
------------15-----------12-------------19--|----------------------16---------------|
--------------------------------------------|---------------------------------------|
--------------------------------------------|---------------------------------------|
--------------------------------------------|---------------------------------------|

--14p-10----------10h-14p-10-14p-10-------10p-7-----|
---------12----12-------------------12----------7---|
------------11-------------------------11---------7-|
----------------------------------------------------|
----------------------------------------------------|
----------------------------------------------------|

--10p-6-----7p-2------------------||---14-12-10----------10-12-14--15--12--9--|
--------7--------2----------------||------------14-12-14----------------------|
----------7--------4--------------||*-----------------------------------------|
---------------------4------------||*-----------------------------------------|
-----------------------4----------||------------------------------------------|
-------------------------5-0------||------------------------------------------|

--14-12-10----------10-12-10--9----------||--18-16-14----------14-16-18--19--16--13--|
-----------14-12-14--------------12------||-----------18-16-18-----------------------|
----------------------------------------*||------------------------------------------|
----------------------------------------*||------------------------------------------|
-----------------------------------------||------------------------------------------|
-----------------------------------------||------------------------------------------|




--18-16-14----------14-16-14--13--11-----|--14-12-10----------10-12-14--15--12--9--|
-----------18-16-18----------------------|-----------14-12-14----------------------|
-----------------------------------------|-----------------------------------------|
-----------------------------------------|-----------------------------------------|
-----------------------------------------|-----------------------------------------|
-----------------------------------------|-----------------------------------------|

--14-12-10----------10-12-10--9--7-----||-------19--21--22--21--19------|
-----------14-12-14--------------------||---19--------------------------|
---------------------------------------||*------------------------------|
---------------------------------------||*------------------------------|
---------------------------------------||-------------------------------|
---------------------------------------||-------------------------------|

--19--15--19--17--15--14------|------12--14--15--12--10-------|
------------------------------|--12-----------------------12--|
------------------------------|-------------------------------|
------------------------------|-------------------------------|
------------------------------|-------------------------------|
------------------------------|-------------------------------|

--10--9h-10p-9h-10-6--10--7------|------19--21--22--21--19------|
---------------------------------|--19--------------------------|
---------------------------------|------------------------------|
---------------------------------|------------------------------|
---------------------------------|------------------------------|
---------------------------------|------------------------------|

--19--21--19--17--15--14------|--12--12-14-15--12-10--10-12-14--10--L-|
------------------------------|---------------------------------------|
------------------------------|---------------------------------------|
------------------------------|---------------------------------------|
------------------------------|---------------------------------------|
------------------------------|---------------------------------------|

--12--14--16--17--19---------||---14-12-10----------10-12-14--15--12--9--|
-----------------------------||------------14-12-14----------------------|
----------------------------*||*-----------------------------------------|
----------------------------*||*-----------------------------------------|
-----------------------------||------------------------------------------|
-----------------------------||------------------------------------------|

--14-12-10----------10-12-10--9----------||--18-16-14----------14-16-18--19--16--13--|
-----------14-12-14--------------12--L---||-----------18-16-18-----------------------|
----------------------------------------*||------------------------------------------|
----------------------------------------*||------------------------------------------|
-----------------------------------------||------------------------------------------|
-----------------------------------------||------------------------------------------|

--18-16-14----------14-16-14--13--11--10--|--14-12-10----------10-12-14--15--12--9--|
-----------18-16-18-----------------------|-----------14-12-14----------------------|
------------------------------------------|-----------------------------------------|
------------------------------------------|-----------------------------------------|
------------------------------------------|-----------------------------------------|
------------------------------------------|-----------------------------------------|


--14-12-10----------10-12-10--9---------||
-----------14-12-14--------------12-----||
----------------------------------------||
----------------------------------------||
----------------------------------------||
----------------------------------------||

| /  slide up
| \  slide down
| h  hammer-on
| p  pull-off
| ~  vibrato
| +  harmonic
| x  Mute note
=========================================================
comments
print report bad tab
1 comment total.
+1 reply
timmay126 wrote on June 14 2008, 07:28 pm

nice tab...it kills

I want to post or [tab]
guest
You may want to rate the tab now too:
select rating
Please do not post tabs as comments. Select "correction" instead!