Oops, an error
Loading. Please wait.

Wise Of The Kings Tab

794 views 1 this week
3 commentsread comments
1 2 3 4 5
please rate
add to favorites launch autoscroll
font size
0
reset
Autoscroll
+/-
esc
set tempo
stop
WARNING: You are trying to view
                                    content from Ultimate-Guitar.com
                                    in an unauthorized application,
                                    which is prohibited.

                                    Please use an official Ultimate
                                    Guitar Tabs application for iPhone,
                                    iPad or Android to access legitimate
                                    chords, guitar, bass, and drum tabs
                                    from Ultimate-Guitar.com database.

                                    Type "ultimate guitar tabs" in Apple
                                    App Store's or Android Market's
                                    search to find the application.
-------------------------------------------------------------------------------
                           "Wisdom Of The Kings" 
-------------------------------------------------------------------------------
tabbed by:Eduardo Maciel de Pablo 
EMAIL:chino692@hotmail.com 

Legend
~	- vibrato
h 	- hammer on
p 	- pull off
% 	- repeat last bar
// 	- tremolo
P.M. 	- palm mute

E tuning (standard)
4 / 4 Time Signature

Intro A
Acoustic Guitar  -  Let ring throughout (as much as possible)
|---------3--------------|-----3-----4-3-1h3p1------|--------------5----3----|
|-------4----3h4---------|---3-----------------4-3--|-------3-4--------------|
|-----5------------------|-0------------------------|-----5------5-----------|
|---5--------------------|-------0---3-1-0-----3-2--|---5--------------------|
|-3----------------------|--------------------------|-3----------------(3)---|
|------------------------|-------3------------------|------------------------|
| Flute (transcribed for guitar)                    |                        |
|------------------------|--------------------------|------------------------|
|-13-12-13-15-16~--15-13-|-12-----------------------|-13-12-13-15-16~--15-13-|
|------------------------|----14-12~----------------|------------------------|
|------------------------|--------------------------|------------------------|
|------------------------|--------------------------|------------------------|
|------------------------|--------------------------|------------------------|

|-------------1-------|------3-------3---4---6-3-|-4-1--3---|-------1-----|
|-------1-3-----3---3-|---4----------4-----------|--------4-|-----1-------|
|-3-2-3-----3-----3---|--------------3---1---0---|----------|---2---------|
|---------------------|-1------------------------|-3----1---|-0-----------|
|-1----------------(1)|-----------1--------------|----------|-------------|
|---------------------|--------------------------|----------|-------------|
|                     |                          |          |             |
|---------------------|-------------15~--16-18~--|16-15~-15-|-------------|
|-15~-----------------|-16-15-16-18--------------|----------|-18-16-15----|
|-------15~-----------|--------------------------|----------|----------17-|
|---------------------|--------------------------|----------|-------------|
|---------------------|--------------------------|----------|-------------|
|---------------------|--------------------------|----------|-------------|

|------------3---||
|----------3---0-||
|--------0-------||
|-----0----------||
|----------------||
|--3-------------||
|                ||
|----------------||
|----------------||
|-16~------------||
|----------------||
|----------------||
|----------------||



Intro B
|--------------------------------|--------------------------|---------------------|
|--------------------------------|--------------------------|---------------------|
|-5------------------------------|--5----------------3------|-8-------------------|
|-5---------------------5--------|--5----------------3------|-8-------------------|
|-3---------------------5--------|--3----------------1------|-6-------------------|
|-----------------------3--------|--------------------------|---------------------|
| Synth Part                     |                          |                     |
|-11-10-11-13-15~-13-11-10--8-6~-|-11--13-15~-13-11-13~-10~-|-11-10-11-13-15--16--|
|-13-11-13-15-16~-15-13-11-10-8~-|-13--15-16~-15-13-15~-11~-|-13-11-13-15-16--18--|
|-------------//-----------------|--------//----------------|-------------//------|
|--------------------------------|--------------------------|---------------------|
|--------------------------------|--------------------------|---------------------|
|--------------------------------|--------------------------|---------------------|

|-----------------------------|
|-----------------------------|
|----------5------------------|
|----------5--------------5/\-|
|----------3--------------5/\-|
|-------------------------3/\-|
|                             |
|-18--16--15-13-11-10--8-10~-|
|-20--18--16-15-13-11-10-11~--|
|-//---------//-//-//---------|
|-----------------------------|
|-----------------------------|
|-----------------------------|

Section 2 Play twice  (muted guitar is played tremolo)
|------------------------------|------------------------------|-------------------|
|------------------------------|------------------------------|-------------------|
|------------------------------|------------------------------|-------------------|
|------------------------------|------------------------------|-------------------|
|3--3--3--3--3--3--3--3--------|3--3--3--3--3--3--3--3-1-1-1-1|-6-6-6-6-6-6-6-6---|
|-----------------------3-3-3-3|------------------------------|-------------------|
|P.M . . . . . . . . . . . . . . . . . . . . . . . . . . . . .|. . . . . . . . .] |
|11-10-11-13-15~-13-11-10--8-6~|-11-10-11-13-15~-13-11-13~-10~|11-10-11-13-15--16-|
|13-11-13-15-16~-15-13-11-10-8~|-13-11-13-15-16~-15-13-15~-11~|13-11-13-15-16--18-|
|------------------------------|------------------------------|------------//-----|
|------------------------------|------------------------------|-------------------|
|------------------------------|------------------------------|-------------------|
|------------------------------|------------------------------|-------------------|

|-----------------------------||
|---------------*2nd time only-||
|-----------------------------||
|-------------------*5~-------||
|-6-6-6-6--3-3-3-3------------||
|-------------------3-3-3-3---||
|P.M. . . . . . . . . . . .]  ||
|-18--16--15-13-11-10--8-10~-||
|-20--18--16-15-13-11-10-11~--||
|-//---------//-//-//---------||
|-----------------------------||
|-----------------------------||
|-----------------------------||



Riff A
Guitars
|-------------------------|-------------------------|-------------------------|
|-------------------------|-------------------------|-------------------------|
|-5-----------------------|-------------------------|-8------------------3----|
|-5-----------------------|-------------------------|-8-----------3-5-6--5----|
|-3-----------------------|-------------------------|-6-----------5-6-8-------|
|-------------------------|-------------------------|-------------------------|
| Synth Part              |                         |                         |
|-------------------------|-------------------------|-------------------------|
|-------------------------|-------------------------|-------------------------|
|-------------------------|-12----------10----------|-15-13-12----13-12-------|
|-10----12----13----12----|----10----10-------13-12-|----------15-------15-13-|
|----10----10----10----10-|-------10-------10-------|-------------------------|
|-------------------------|-------------------------|-------------------------|

|-------------------------|-------------------------|--------------------------|
|-------------------------|-------------------------|--------------------------|
|-10~---------------------|-5-----------------------|--------------------------|
|-------------------------|-5-----------------------|--------------------------|
|-------------------------|-3-----------------------|--------------------------|
|--6~---------------------|-------------------------|--------------------------|
|                         |                         |                          |
|-------------------------|-------------------------|--------------------------|
|-------------------------|-------------------------|--------------------------|
|-------------------------|-------------------------|-12----------10-----------|
|-15-13-12------12-13-15--|-10----12----13----12----|----10----10-------13-12--|
|----------15-13----------|----10----10----10----10-|-------10-------10--------|
|-------------------------|-------------------------|--------------------------|

|-------------------------|----------------||
|-------------------------|----------------||
|-8---------------3-------|-10~------------||
|-8---------3-5-6-5-------|----------------||
|-6---------5-6-8---------|----------------||
|-------------------------|--6~------------||
|                         |                ||
|-------------------------|----------------||
|-------------------------|----------------||
|-15-13-12----13-12-------|----------------||
|----------15-------15-13-|-15~------------||
|-------------------------|----------------||
|-------------------------|----------------||



Riff B
|---------------|-----------------|--------------|-------------|
|---------------|-----------------|--------------|-------------|
|---------------|-----------------|--------------|-------------|
|-----5---------|-----------------|-----5------8-|-------------|
|-----5-------5-|-3-3-3-5-6-6-5-3-|-----5--5-5---|-3~--5-6-3~--|
|-3-3---3-5-6---|-----------------|-3-3----------|-------------|
| P.M   P.M. . .|. . . . . . ]    | P.M    P.M   |             |
|---------------|-----------------|--------------|-------------|
|---------------|-----------------|--------------|-------------|
|---------------|-----------------|--------------|-------------|
|-----5---------|-----------------|-----5------8-|-------------|
|-----5-------5-|-3-3-3-5-6-6-5-3-|-----5--5-5---|-3~--5-6-3~--|
|-3-3---3-5-6---|-----------------|-3-3----------|-------------|
  P.M   P.M. . . . . . . . .]       P.M    P.M

|----------|-----------------|---------|--------------||
|----------|-----------------|---------|--------------||
|----------|-----------------|---------|--------------||
|----------|-----------------|-----6-3-|-5~--/5p3-----||
|-1~-3~-5~-|-6-6-6-6-5-5-3-3-|-2~------|----------6p5-||
|----------|-----------------|---------|--------------||
|          | P.M. . . . . . ]|         |              ||
|----------|-----------------|---------|--------------||
|----------|-----------------|---------|--------------||
|----------|-----------------|-----5-2-|-4~-----------||
|-------3~-|-5-5-5-5-3-3-----|---------|-----/5p3-----||
|-5~-6~----|-------------6-6-|-5~------|----------6p5-||
|----------|-----------------|---------|--------------||
             P.M. . . . . . ]



Riff C
|-----------------|---|---|-------------|-----------------|-----------------|
|-----------------|---|---|-------------|-----------------|-----------------|
|-----------------|---|-8-|-\3----------|-----------------|-----------------|
|-----------------|-%-|-8-|-\3----------|-----------------|-----------------|
|-3-3-3-3-3-3-3-3-|---|-6-|-\1--1-3-5-1-|-3-3-3-3-3-3-3-3-|-3-3-1-1---------|
|-----------------|---|---|-------------|-----------------|---------3-3-1-1-|
| P.M. . . . . . ]|   |   |     P.M. . .|. . . . . . . . .|. . . . . . . .] |
|-----------------|---|---|-------------|-----------------|-----------------|
|-----------------|---|---|-------------|-----------------|-----------------|
|-----------------|---|-8-|-\3----------|-----------------|-----------------|
|-----------------|-%-|-8-|-\3----------|-----------------|-----------------|
|-3-3-3-3-3-3-3-3-|---|-6-|-\1--1-3-5-1-|-3-3-3-3-3-3-3-3-|-3-3-1-1---------|
|-----------------|---|---|-------------|-----------------|---------3-3-1-1-|
  P.M. . . . . . ]              P.M. . . . . . . . . . . . . . . . . . . .]

|--*picked fast-----|-------------|
|-------------------|-------------|
|-----------------8-|-3-----------|
|-----------------8-|-3-----------|
|-6-6-6-6-6-6-6-6-6-|-1--1-3-5-1--|
|---------[--*--]---|-------------|
| P.M. . . . . ..]  |             |
|-------------------|-------------|
|-------------------|-------------|
|-----------------8-|-3-----------|
|-----------------8-|-3-----------|
|-6-6-6-6-6-6-6-6-6-|-1--1-3-5-1--|
|---------[--*--]---|-------------|
  P.M. . . . . ..]

|---------------|-----------------|--------------|-------------|
|---------------|-----------------|--------------|-------------|
|---------------|-----------------|--------------|-------------|
|-----5---------|-----------------|-----5------8-|-------------|
|-----5-------5-|-3-3-3-5-6-6-5-3-|-----5--5-5---|-3~--5-6-3~--|
|-3-3---3-5-6---|-----------------|-3-3----------|-------------|
| P.M   P.M. . .|. . . . . . ]    | P.M    P.M   |             |
|---------------|-----------------|--------------|-------------|
|---------------|-----------------|--------------|-------------|
|---------------|-----------------|--------------|-------------|
|-----5---------|-----------------|-----5------8-|-------------|
|-----5-------5-|-3-3-3-5-6-6-5-3-|-----5--5-5---|-3~--5-6-3~--|
|-3-3---3-5-6---|-----------------|-3-3----------|-------------|
  P.M   P.M. . . . . . . . .]       P.M    P.M

|----------|-----------------|---------|-------------||
|----------|-----------------|---------|-------------||
|----------|-----------------|---------|-------------||
|----------|-----------------|-5-------|-(5)---------||
|-1~-3~-5~-|-6-6-6-6-5-5-3-3-|-5-------|-(5)---------||
|----------|-----------------|-3-------|-(3)---------||
|          | P.M. . . . . . ]|         |             ||
|----------|-----------------|-3-------|-(3)---------||
|----------|-----------------|-3-------|-(3)---------||
|----------|-----------------|-0-------|-(0)---------||
|-------3~-|-5-5-5-5-5-5-5h6-|---------|-------------||
|-5~-6~----|-----------------|---------|-------------||
|----------|-----------------|---------|-------------||
             P.M. . . . ]



Interlude
Violins
|------16--------|-----------15--------|15----11----13----15--|13----10----11---13---|
|13----------13--|15----12---------12--|16----13----15----16--|15----11----13----15--|
|---13----13---13|--12----12----12---12|---12----12----12---12|---12----12----12---12|
|----------------|---------------------|----------------------|----------------------|
|----------------|---------------------|----------------------|----------------------|
|----------------|---------------------|----------------------|----------------------|
|Bass            |                     |                      |                      |
|----------------|---------------------|----------------------|----------------------|
|----------------|---------------------|----------------------|----------------------|
|----------------|---------------------|----------------------|----------------------|
|----------------|---------------------|----------------------|----------------------|
|----------------|-6-----5----3-----1--|-3~----------5-----6--|-5~-------------------|
|4~------3-----1-|---------------------|----------------------|----------------------|

|-------------11---------|-------------14-----------|------------------------|------||
|-13----13----------13---|-13----16-----------16----|-18-20-18---------------|------||
|----11----11----11----11|----14----14----14-----17-|-19-21-19-20-19-20-19-17|-19~--||
|------------------------|--------------------------|----------22-21-22-21-19|-21~--||
|------------------------|--------------------------|------------------------|------||
|------------------------|--------------------------|------------------------|------||
|Bass                    |                          |                        |      ||
|------------------------|--------------------------|------------------------|------||
|------------------------|--------------------------|------------------------|------||
|------------------------|--------------------------|------------------------|------||
|--7-----4---------------|--------------------------|------------------------|------||
|--------------6---------|--------------------------|------------------------|-10~--||
|--------------------8---|--5-----7-----8------5----|--7-----8-----10----7---|------||



Chorus
|---|---|---|---|---|---|-----|---------------|---|---|---|---|---|---|---||
|---|---|---|---|---|---|-----|---------------|---|---|---|---|---|---|---||
|---|-5-|---|-5-|-6-|---|-----|---------------|---|-5-|-3-|---|-6-|-8-|---||
|-6-|-5-|-3-|-5-|-6-|-6-|-5-6-|--8-6-5--------|-6-|-5-|-3-|-3-|-6-|-8-|-6-||
|-6-|-3-|-3-|-3-|-4-|-6-|-6-8-|-10-8-6--8-6-5-|-6-|-3-|-1-|-3-|-4-|-6-|-6-||
|-4-|---|-1-|---|---|-4-|-////|-//////-10-8-6-|-4-|---|---|-1-|---|---|-4-||
                          P.M. . . . . //////.]



Solos
Violin? solo
 G#5               G5       G#5               C#           B
|--16-14-----------|-----14---------|-------|----------16-14----------|
|--//----16~-14-16-|-17~----17-16~--|-14-16-|-17-16-14-------17-16-17-|
|*-----------------|-----------//-*-|-------|-------------------------|
|*-----------------|--------------*-|-------|-------------------------|
|------------------|----------------|-------|-------------------------|
|------------------|----------------|-------|-------------------------|

   A         G#       C#           B            G
|-17~-16-15-15~-16~-|-18-16-------------------|-------15-16-18~-|
|-------------------|-------19-17-16-17-16-15-|-16-18-----------|
|-------------------|-------------------------|-----------------|
|-------------------|-------------------------|-----------------|
|-------------------|-------------------------|-----------------|
|-------------------|-------------------------|-----------------|


Guitar Solo
|-14-14-13-14-16-14h16p14-13-16-|-14-14-13-14-16-14h16p14-13-16-|
|-------------------------------|-------------------------------|
|-------------------------------|-------------------------------|
|-------------------------------|-------------------------------|
|-------------------------------|-------------------------------|
|-------------------------------|-------------------------------|
|                               |                               |
|-------------------------------|-------------------------------|
|-------------------------------|-------------------------------|
|----11-10-11-13----11----10-13-|-11------------------8----9-11-|
|--9----------------------------|-----9--8--9-11----------------|
|-------------------------------|-------------------------------|
|-------------------------------|-------------------------------|

|-12-12-11-12-14-12h14p12-11-14-|-12-12--9-9-11-11-12-12---|
|-------------------------------|--------------------------|
|-------------------------------|--------------------------|
|-------------------------------|--------------------------|
|-------------------------------|--------------------------|
|-------------------------------|--------------------------|
|                               |                          |
|-------------------------------|--------------------------|
|-------------------------------|--------------------------|
|-----9--8--9-11-----9-----8-11-|--9-----------------------|
|--8----------------------------|----8--6--8--9-11--8-11---|
|-------------------------------|----[*11-11-12-12-14-14*]-|
|-------------------------------|-------*2nd time only-----|

|-11-13----13----13----13-|---13----13----13----13-|-11-13-11----11----------|----|
|-------15----13----11----|10----11----13----15----|----------15----15-13-11-|----|
|*------------------------|------------------------|-------------------------|-%-*|
|*------------------------|------------------------|-------------------------|---*|
|-------------------------|------------------------|-------------------------|----|
|-------------------------|------------------------|-------------------------|----|
|                         |                        |                         |    |
|--8-10----10----10----10-|---10----10----10----10-|-------------------------|----|
|-------11----10-----8----|-------8----10----11----|-11-13-11-10-11-10--8----|----|
|*------------------------|10----------------------|----------------------10-|-%-*|
|*------------------------|------------------------|-------------------------|---*|
|-------------------------|------------------------|-------------------------|----|
|-------------------------|------------------------|-------------------------|----|


Violin Mixed Solo
Violin 1+2 (Violin1 high 1,2 & 3 strings, Violin2 3,4 & 5 strings)
|18~------18---17---|-15~-------15-------|-----------------|----------------------|
|----18-------------|------15--------18--|-16~---------16--|15hbr--15-15~---------|
|19~------19---17---|-15~-------15-------|-----15--17------|----------------------|
|----19-------------|------15--------19--|-17~-----19--15--|17~-------------------|
|-------------------|--------------------|-----18----------|----------------------|
|-------------------|--------------------|-----------------|----------------------|
|Violin 3           |                    |                 |                      |
|-------------------|--------------------|-----------------|----------------------|
|18~-18-18-20-18----|--------------------|-----------------|----------------------|
|----------------20-|-19~-19-19-20-19-17-|--------17~-20~--|19-17-----------------|
|-------------------|--------------------|-20~-------------|------20-19h20p19-17~-|
|-------------------|--------------------|-----------------|----------------------|
|-------------------|--------------------|-----------------|----------------------|
|Guitar Rhythm-     |                    |                 |                      |
|-------------------|--------------------|-----------------|----------------------|
|-------------------|--------------------|-----------------|----------------------|
|-------------------|--------------------|-----------------|----------------------|
|-------------------|--------------------|---------3-3-3-3-|--5-5-5-5---3---------|
|--1-1-1-1----------|-----------5-5-5-5--|-6-6-6-6---------|-------------6-5-3----|
|-----------1-1-1-1-|--3-3-3-3-----------|-----------------|----------------------|
  P.M. . . . . . . . . . .. . . . . . . . . . . . . . . . . . . . . . . . . . .]

Violin 1+2
|18~------18---17----|-15~-------15-------|----------------|----------------------|
|----18--------------|------15--------18--|16~---------16--|15hbr-------15~-------|
|19~------19-17h19p17|-15~-------15-------|----15--17------|----------------------|
|----19--------------|------15--------19--|17~-----19--15--|17h19p17-15-17~-------|
|--------------------|--------------------|----18----------|----------------------|
|--------------------|--------------------|----------------|----------------------|
|Violin 3            |                    |                |                      |
|--------------------|--------------------|----------------|----------------------|
|18~-18-18-20--18----|--------------------|----------------|----------------------|
|-----------------20-|-19~-19-19-20-19-17-|-------17~-20~--|19-17-----------------|
|--------------------|--------------------|20~-------------|------20-19h20p19-17~-|
|--------------------|--------------------|----------------|----------------------|
|--------------------|--------------------|----------------|----------------------|
|Guitar Rhythm-      |                    |                |                      |
|--------------------|--------------------|----------------|----------------------|
|--------------------|--------------------|----------------|----------------------|
|-3------------------|-----------7--------|8------10-------|----------------------|
|-3---------3--------|--5--------7--------|8------10-------|-5--------------------|
|-1---------3--------|--5--------5--------|6-------8-------|-5--------------------|
|-----------1--------|--3-----------------|----------------|-3--------------------|

Violin 1
|----------------13----18---|----------------10----15--|--------------------------|
|-------------15----15------|-------------11----11-----|----------8-11-8-10-11----|
|-15-15-15-15---------------|-12-12-12-12--------------|-8--8-8-8-----------------|
|---------------------------|--------------------------|--------------------------|
|---------------------------|--------------------------|--------------------------|
|---------------------------|--------------------------|--------------------------|
|Violin 2                   |                          |                          |
|---------------------------|--------------------------|--------------------------|
|15-15-15-15----15----------|--------------------------|--------------------------|
|------------17----17-15-14-|------------15----------14|15-15-15-15-14------------|
|---------------------------|17-17-17-17----17-15-17---|---------------17-15------|
|---------------------------|--------------------------|---------------------18-17|
|---------------------------|--------------------------|--------------------------|
|Guitar Rhythm-             |                          |                          |
|---------------------------|--------------------------|--------------------------|
|---------------------------|--------------------------|--------------------------|
|---------------------------|--------------------------|--------------------------|
|---------------------------|--------------------------|--------------------------|
|---1--1--1--1--1--1--1--1--|--------------------------|--6--6--6--6--6--6--6--6--|
|---------------------------|--3--3--3--3--3--3--3--3--|--------------------------|
 P.M. . . . . . . . . . . . . . . . . . . . . . . . . . . . . . . . . . . . . . .]

Violin 1
|---------8---------------|---------18-17h18-15h18-13-|--------15-13h15-11h15-10--|
|-10~-11~-----------------|-18--18--------------------|-15-15---------------------|
|-----------10~-----------|-//--//--------------------|-//-//---------------------|
|-------------------------|---------------------------|---------------------------|
|-------------------------|---------------------------|---------------------------|
|-------------------------|---------------------------|---------------------------|
|Violin 2                 |                           |                           |
|-------------------------|---------------------------|---------------------------|
|-------------------------|15-15-15-15----15----------|---------------------------|
|-------------------------|------------17----17-15-14-|-------------15----------14|
|-15-15-15-15-------------|---------------------------|-17-17-17-17----17-15-17---|
|-------------18~-17~-15~-|---------------------------|---------------------------|
|-------------------------|---------------------------|---------------------------|
|Guitar Rhythm-           |                           |                           |
|-------------------------|---------------------------|---------------------------|
|-------------------------|---------------------------|---------------------------|
|-------------------------|---------------------------|---------------------------|
|-------------------------|---------------------------|---------------------------|
|--8--8--8--8--8--8--8--8-|--1--1--1--1--1------------|--------------------3--5---|
|-------------------------|-----------------4--3--1---|--3--3--3--3--5--6---------|
  P.M. . . . . . . . . . . . . . . . . . . . . . . . . . . . . . . . . . . . .]

Violin 1
|--------11-10h11-8h11--6----|--------13-11h13-10h13-8-|
|-11-11----------------------|-13-13-------------------|
|-//-//----------------------|-//-//-------------------|
|----------------------------|-------------------------|
|----------------------------|-------------------------|
|----------------------------|-------------------------|
|Violin 2                    |                         |
|----------------------------|-------------------------|
|----------------------------|-------------------------|
|-15-15-15-15-14-------------|-------------------------|
|----------------17-15-------|-15-15-15-15-------------|
|----------------------18-17-|--------------18-17-15---|
|----------------------------|-------------------------|
|Guitar Rhythm-              |                         |
|----------------------------|-------------------------|
|----------------------------|-------------------------|
|----------------------------|-------------------------|
|----------------------------|-------------------------|
|--6--6--6--6--6--6--6--6----|--8--8--8--8--8--8--8--8-|
|----------------------------|-------------------------|
  P.M. . . . . . . . . . . . . . . . . . . . . . . . .]


Violin? Solo
 G5                       F#5      G5         G5
|------------------------|-------------------|------------------------|
|-15-15-15-15~-13--------|-----13~-----------|-15-15-15-15~-13--------|
|-----------------15-12~-|-14~-----15-14-12~-|-----------------15-12~-|
|------------------------|-------------------|------------------------|
|------------------------|-------------------|------------------------|
|------------------------|-------------------|------------------------|

 F#5          G5           C            A#           G#           G
|------------------------|----------15-13----------|-16-16-15-14-14~--15~-|
|----13------------13-15-|-16-15-13-------16-15-16-|----------------------|
|-14----15-14-12~--------|-------------------------|----------------------|
|------------------------|-------------------------|----------------------|
|------------------------|-------------------------|----------------------|
|------------------------|-------------------------|----------------------|

 C             A#           F#
|-17-15-------------------|-------14-15-17~--||
|-------18-16-15-16-15-14-|-15-17------------||
|-------------------------|------------------||
|-------------------------|------------------||
|-------------------------|------------------||
|-------------------------|------------------||




Song Structure
Intro		- Intro A, Intro B
Verse 1	- Riff A, Riff B
Verse 2	- Riff C
Bridge	- Bridge
Chorus	- Chorus
Solos		- Violin? Solo, guitar solo, mixed violin solo, violin? Solo
Verse 4	- Riff C
Bridge	- Bridge
Chorus	- Chorus (x2)
Outro		- Finishes on G#5 chord

*Note
Verse 1 starts:  	"Removed the Stones which hide the cave..
Verse 2 starts:	"And they appear in front of me..
Chorus starts:	"holy dragons keepers of time..
Verse 3 starts:	"lost in a dream I'm under the spell..
comments
We did not receive enough feedback on this tab! Please rate:
print report bad tab
1 2 3 4 5
3 comments total.
0 reply
Metallica_AC/DC wrote on March 12 2009, 04:15 pm

stolen!

0 reply
Metallica_AC/DC wrote on March 12 2009, 04:15 pm

stolen!

0 reply
Metallica_AC/DC wrote on March 12 2009, 04:15 pm

stolen!

I want to post or [tab]
guest
You may want to rate the tab now too:
select rating
Please do not post tabs as comments. Select "correction" instead!