Oops, an error
Loading. Please wait.

Dont Know What To Do Tab

13,076 views 27 this week
no commentswrite comment
1 2 3 4 5
please rate
Autoscroll
+/-
esc
set tempo
stop
Contributor
Difficulty
intermediate
WARNING: You are trying to view
                                    content from Ultimate-Guitar.com
                                    in an unauthorized application,
                                    which is prohibited.

                                    Please use an official Ultimate
                                    Guitar Tabs application for iPhone,
                                    iPad or Android to access legitimate
                                    chords, guitar, bass, and drum tabs
                                    from Ultimate-Guitar.com database.

                                    Type "ultimate guitar tabs" in Apple
                                    App Store's or Android Market's
                                    search to find the application.
For all the hopeless romantic out there.

Don't Know What To Do by Ric Segreto

Tabbed by: Edward A. Mirador
Email: edalimir@yahoo.com


E||--5---------0----------0--------0--------5-|
B||-------------------------------------------|
G||--------7----------7--------7--------7-----|
D||----7----------7----------7--------7-------|
A||-------------------------------------------|
E||-------------------------------------------|


----------0--------0--------0--------5-|
---------------------------------------|
------7--------7--------7--------7-----|
----7--------7--------7--------7-------|
---------------------------------------|
---------------------------------------|


----------0--------0--------0----------5-|
-----------------------------------------|
------7--------7--------7----------7-----|
----7--------7--------7--------7---------|
-----------------------------------------|
-----------------------------------------|


----------0--------0--------0--------5-|----------0--------0--------0--------5-|
---------------------------------------|---------------------------------------|
------7--------7--------7--------7-----|------7--------7--------7--------7-----|
----7--------7--------7--------7-------|----7--------7--------7--------7-------|
---------------------------------------|---------------------------------------|
---------------------------------------|---------------------------------------|


----------0--------0--------0--------5-|
---------------------------------------|
------7--------7--------7--------7-----|
----7--------7--------7--------7-------|
---------------------------------------|
---------------------------------------|


--4-------4------------------5----------|
-----------------5---7------------0-----|
--4---6--------6---------6--------------|
----6--------6---------7--------7---7---|
----------------------------------------|
----------------------------------------|


-----------------0-----------------------|
--------------------------------0--------|
--6---6---7-------------7----------------|
----7--------7------7-------7--------7---|
-----------------------------------------|
-----------------------------------------|


--0-----0--------0----------0--------5-|--------0--------0--------0--------5-|
---------------------------------------|-------------------------------------|
------7------7----------7--------7-----|------7------7--------7--------7-----|
----7------7--------7----------7-------|----7------7--------7--------7-------|
---------------------------------------|-------------------------------------|
---------------------------------------|-------------------------------------|


--7-----4----0-4---2-------5--------|-----------------------------------|
------5----2-----------2--------2---|--2---2-3----2-3----2-3------2-3---|
----6----------------2--------2---2-|----2------2------2--------2-------|
------------------------------------|-----------------------------------|
------------------------------------|-----------------------------------|
------------------------------------|-----------------------------------|


--0-------2--------3--------3--------2-|
------3--------3--------3-------4----3-|
----2--------2--------2---------5----4-|
--------------------------------7------|
---------------------------------------|
---------------------------------------|


-------------------------------0--------0-|
--------0---3---0---3---------------------|
---------------------------2--------2-----|
----0-4-------4--------2----------2-------|
------------------------------------------|
------------------------------------------|


--0---------5----------------2----0---|
---------------------3-3----------2---|
--------2----------2-------4------2---|
----4------------4-------4------------|
--------------------------------------|
--------------------------------------|


-------------------2-----------0----------|
--3---0---3----0-------2------------------|
---------------------------2--------2-----|
----4--------4-----------2------------2---|
------------------------------------------|
------------------------------------------|


-------------------0-----------------|--2-----------2------0-------0------0-|
--2-----2---3-------------3-----4----|--3---0-3-----------------------------|
----2----------2----------------5----|--4-0-----0------0-------2--------2---|
--------------------------------7----|--5--------------------2--------2-----|
-------------------------------------|--------------------------------------|
-------------------------------------|--------------------------------------|


--0-------0-------5------------------2---0---|
---------------------------3-----3-------2---|
--------2------------------4---4---------2---|
------4-------4--------4-----4---------------|
---------------------------------------------|
---------------------------------------------|


------------2------------------------|-----------------0---------------------|
--3---0-3-------0---2-------2-----3--|--------3-------------0---3------0-----|
--4-0-----0---0---------2-------2-4--|------4------4-------------------------|
--5-------------------2-------2---4--|----4------4--------4----------4---4---|
-------------------------------------|---------------------------------------|
-------------------------------------|---------------------------------------|


---------------------------------|----------0--------0--------0--------5-|
--2---2-3--0---3--0-----3--0-----|------3--------3--------3--------3-----|
--4------------------------------|----2--------2--------2--------2-------|
--4-4--------4------4--------4---|---------------------------------------|
---------------------------------|---------------------------------------|
---------------------------------|---------------------------------------|


----------0--------0--------0--------5-|
------3--------3--------3--------3-----|
----2--------2--------2--------2-------|
---------------------------------------|
---------------------------------------|
---------------------------------------|


--4-------4------------------5----------|
-----------------5---7------------0-----|
--4---6--------6---------6--------------|
----6--------6---------7--------7---7---|
----------------------------------------|
----------------------------------------|


-----------------0-----------------------|
--------------------------------0--------|
--6---6---7-------------7----------------|
----7--------7------7-------7--------7---|
-----------------------------------------|
-----------------------------------------|


--0-----0--------0----------0--------5-|--------0--------0--------0--------5-|
---------------------------------------|-------------------------------------|
------7------7----------7--------7-----|------7------7--------7--------7-----|
----7------7--------7----------7-------|----7------7--------7--------7-------|
---------------------------------------|-------------------------------------|
---------------------------------------|-------------------------------------|


--7-----4----0-4---2-------5--------|-----------------------------------|
------5----2-----------2--------2---|--2---2-3----2-3------2------2-3---|
----6----------------2--------2---2-|----2------2--------2------2-------|
------------------------------------|------------------2----------------|
------------------------------------|-----------------------------------|
------------------------------------|-----------------------------------|


--0-------2--------3--------3--------2-|
------3--------3--------3-------4----3-|
----2--------2--------2---------5----4-|
--------------------------------7------|
---------------------------------------|
---------------------------------------|


-------------------------------0--------0-|
--------0---3---0---3---------------------|
---------------------------2--------2-----|
----0-4-------4--------2----------2-------|
------------------------------------------|
------------------------------------------|


--0---------5----------------2----0---|
---------------------3-3----------2---|
--------2----------2-------4------2---|
----4------------4-------4------------|
--------------------------------------|
--------------------------------------|


-------------------2-----------0----------|
--3---0---3----0-------2------------------|
---------------------------2--------2-----|
----4--------4-----------2------------2---|
------------------------------------------|
------------------------------------------|


-------------------0-----------------|--2-----------2------0-------0------0-|
--2-----2---3-------------3-----4----|--3---0-3-----------------------------|
----2----------2----------------5----|--4-0-----0------0-------2--------2---|
--------------------------------7----|--5--------------------2--------2-----|
-------------------------------------|--------------------------------------|
-------------------------------------|--------------------------------------|


--0-------0-------5------------------2---0---|
---------------------------3-----3-------2---|
--------2------------------4---4---------2---|
------4-------4--------4-----4---------------|
---------------------------------------------|
---------------------------------------------|


------------2------------------------|-----------------0---------------------|
--3---0-3-------0---2-------2--------|--3-----3-------------0---3------0-----|
--4-0-----0---0---------2---------2--|--4---4------4-------------------------|
--5-------------------2-------2------|--4-4------4--------4----------4---4---|
-------------------------------------|---------------------------------------|
-------------------------------------|---------------------------------------|


---------------------------------|-------------------0---------------------|
--2---2-3--0---3--0-----3--0-----|--2---2---3-------------3----2-----2-----|
--4------------------------------|-----------------------------------------|
--4-4--------4------4--------4---|----4----------4------4----4---4-------4-|
---------------------------------|-----------------------------------------|
---------------------------------|-----------------------------------------|


---------------0--------5--------|-------------------0---------------------|
--2---2-3--0------0--------0-----|--2---2---3-------------3----2-----2-----|
--4------------------------------|-----------------------------------------|
--4-4--------4------4--------4---|----4----------4------4----4---4-------4-|
---------------------------------|-----------------------------------------|
---------------------------------|-----------------------------------------|


---------------0--------5--------||
--2---2-3--0------0--------0-----||
--4------------------------------||
--4-4--------4------4--------4---||
---------------------------------||
---------------------------------||

comments
We did not receive enough feedback on this tab! Please rate:
print report bad tab
1 2 3 4 5
I want to post or [tab]
guest
You may want to rate the tab now too:
select rating
Please do not post tabs as comments. Select "correction" instead!