Oops, an error
Loading. Please wait.

Shouldve Known Better Tab

1,425 views 9 this week
no commentswrite comment
1 2 3 4 5
worth learning
x 1
Autoscroll
+/-
esc
set tempo
stop
Contributor
WARNING: You are trying to view
                                    content from Ultimate-Guitar.com
                                    in an unauthorized application,
                                    which is prohibited.

                                    Please use an official Ultimate
                                    Guitar Tabs application for iPhone,
                                    iPad or Android to access legitimate
                                    chords, guitar, bass, and drum tabs
                                    from Ultimate-Guitar.com database.

                                    Type "ultimate guitar tabs" in Apple
                                    App Store's or Android Market's
                                    search to find the application.
-----------------------------------------------------------------------------
                Should've Known Better - Richard Marx   (GUITAR)
                       
-----------------------------------------------------------------------------
Tabbed by: Scotto10

Tuning: Standard

=============================================================================


Guitar 1



     E  E  E  E  H           E  E  E  E  H           E  E  E  E  H         
E||-----------------------|-----------------------|-----------------------|
B||-----------4--L--------|--L--------4--L--------|--L--------3--L--------|
G||-----0-----------------|-----0-----------------|-----------------------|
D||--------6--------------|--------6--------------|-----1--3--------------|
A||-----------------------|-----------------------|-----------------------|
E||-----------------------|-----------------------|-----------------------|


  W                   E  E  E  E  H           E  E  E  E  H         
-------------------|-----------------------|-----------------------|
--3----------------|-----------4--L--------|--L--------4--L--------|
-------------------|-----0-----------------|-----0-----------------|
-------------------|--------6--------------|--------6--------------|
-------------------|-----------------------|-----------------------|
-------------------|-----------------------|-----------------------|


  E  E  E  E  H           W                   Q    E  E  H         
-----------------------|-------------------|----------------------|
--L--------3--L--------|--3----------------|----------------------|
-----------------------|-------------------|----------3-----------|
-----1--3--------------|-------------------|----------------------|
-----------------------|-------------------|----------------------|
-----------------------|-------------------|----------------------|


  H        E  E  E  E     Q    E  E  H           H        E  E  E  E   
-----------------------|----------------------|-----------------------|
-----------------------|----------------------|-----------------------|
-----------3--5-----5--|----------3-----------|-----------3--5-----5--|
-----------------------|----------------------|-----------------------|
-----------------------|----------------------|-----------------------|
-----------------------|----------------------|-----------------------|


  Q    E  E  H           H        E  E  E  E     Q    E  E  H         
----------------------|-----------------------|----------------------|
----------------------|-----------------------|----------------------|
----------3-----------|-----------3--5-----5--|----------3-----------|
----------------------|-----------------------|----------------------|
----------------------|-----------------------|----------------------|
----------------------|-----------------------|----------------------|


  H        E  E  E  E     Q    E  E  H           H        E  E  E  E   
-----------------------|----------------------|-----------------------|
-----------------------|----------------------|-----------------------|
-----------3--5-----5--|----------3-----------|-----------3--5-----5--|
-----------------------|----------------------|-----------------------|
-----------------------|----------------------|-----------------------|
-----------------------|----------------------|-----------------------|


  Q    E  E  H           H        E  E  E  E     Q    E  E  H         
----------------------|-----------------------|----------------------|
----------------------|-----------------------|----------------------|
----------3-----------|-----------3--5-----5--|----------3-----------|
----------------------|-----------------------|----------------------|
----------------------|-----------------------|----------------------|
----------------------|-----------------------|----------------------|


  H        E  E  E  E     Q    E  E  H           H        E  E  E  E   
-----------------------|----------------------|-----------------------|
-----------------------|----------------------|-----------------------|
-----------3--5-----5--|----------3-----------|-----------3--5-----5--|
-----------------------|----------------------|-----------------------|
-----------------------|----------------------|-----------------------|
-----------------------|----------------------|-----------------------|


  Q    E  E  H           H        E  E  E  E     Q    E  E  H         
----------------------|-----------------------|----------------------|
----------------------|-----------------------|----------------------|
----------3-----------|-----------3--5-----5--|----------3-----------|
----------------------|-----------------------|----------------------|
----------------------|-----------------------|----------------------|
----------------------|-----------------------|----------------------|


  H        E  E  E  E     Q    E  E  H           H        E  E  E  E   
-----------------------|----------------------|-----------------------|
-----------------------|----------------------|-----------------------|
-----------3--5-----5--|----------3-----------|-----------3--5-----5--|
-----------------------|----------------------|-----------------------|
-----------------------|----------------------|-----------------------|
-----------------------|----------------------|-----------------------|


  Q    E  E  H           H        E  E  E  E     Q    E  E  H         
----------------------|-----------------------|----------------------|
----------------------|-----------------------|----------------------|
----------3-----------|-----------3--5-----5--|----------3-----------|
----------------------|-----------------------|----------------------|
----------------------|-----------------------|----------------------|
----------------------|-----------------------|----------------------|


  H        E  E  E  E     Q    E  E  H           H        E  E  E  E   
-----------------------|----------------------|-----------------------|
-----------------------|----------------------|-----------------------|
-----------3--5-----5--|----------3-----------|-----------3--5-----5--|
-----------------------|----------------------|-----------------------|
-----------------------|----------------------|-----------------------|
-----------------------|----------------------|-----------------------|


  Q    E  E  H           H        E  E  E  E     Q    E  E  H         
----------------------|-----------------------|----------------------|
----------------------|-----------------------|----------------------|
----------3-----------|-----------3--5-----5--|----------3-----------|
----------------------|-----------------------|----------------------|
----------------------|-----------------------|----------------------|
----------------------|-----------------------|----------------------|


  H        E  E  E  E     Q    E  E  H           H        E  E  E  E   
-----------------------|----------------------|-----------------------|
-----------------------|----------------------|-----------------------|
-----------3--5-----5--|----------3-----------|-----------3--3-----3--|
-----------------------|----------------------|-----------------------|
-----------------------|----------------------|-----------------------|
-----------------------|----------------------|-----------------------|


  Q    E  E  H           H        E  E  E  E     Q    E  E  H         
----------------------|-----------------------|----------------------|
----------------------|-----------------------|----------------------|
----------3-----------|-----------3--5-----5--|----------1-----------|
----------------------|-----------------------|----------------------|
----------------------|-----------------------|----------------------|
----------------------|-----------------------|----------------------|


  H        E    E  E  E     Q.     E  H           H        Q    E  E   
-------------------------|---------------------|----------------------|
-------------------------|---------------------|----------------------|
--------------3g5-----3--|--L------3-----------|-------------------3--|
-------------------------|---------------------|----------------------|
-------------------------|---------------------|----------------------|
-------------------------|---------------------|----------------------|


  Q    E  E  H           H        E  E  E  E     Q    E  E  H         
----------------------|-----------------------|----------------------|
----------------------|-----------------------|----------------------|
----------3-----------|-----------3--3-----3--|----------3-----------|
----------------------|-----------------------|----------------------|
----------------------|-----------------------|----------------------|
----------------------|-----------------------|----------------------|


  H        E  E  E  E     Q    E  E  H           H        E  E  E  E   
-----------------------|----------------------|-----------------------|
-----------------------|----------------------|-----------------------|
-----------3--5-----5--|----------3-----------|--------------3-----3--|
-----------------------|----------------------|-----------------------|
-----------------------|----------------------|-----------------------|
-----------------------|----------------------|-----------------------|


  W                   E  E  Q    H           Q    E  E  H         
-------------------|----------------------|----------------------|
-------------------|-------------3--------|----------------------|
-------------------|--5-------------------|----------3-----------|
-------------------|----------------------|----------------------|
-------------------|----------------------|----------------------|
-------------------|----------------------|----------------------|


  H        E  E  E  E     Q    E  E  H           H        E  E  E  E   
-----------------------|----------------------|-----------------------|
-----------------------|----------------------|-----------------------|
-----------3--5-----5--|----------3-----------|-----------3--5-----5--|
-----------------------|----------------------|-----------------------|
-----------------------|----------------------|-----------------------|
-----------------------|----------------------|-----------------------|


  Q    E  E  H           H        E  E  E  E     Q    E  E  H         
----------------------|-----------------------|----------------------|
----------------------|-----------------------|----------------------|
----------3-----------|-----------3--5-----5--|----------3-----------|
----------------------|-----------------------|----------------------|
----------------------|-----------------------|----------------------|
----------------------|-----------------------|----------------------|


  H        E  E  E  E     Q    E  E  H           H        E  E  E  E   
-----------------------|----------------------|-----------------------|
-----------------------|----------------------|-----------------------|
-----------3--5-----5--|----------3-----------|-----------3--5-----5--|
-----------------------|----------------------|-----------------------|
-----------------------|----------------------|-----------------------|
-----------------------|----------------------|-----------------------|


  Q    E  E  H           H        E  E  E  E     Q    E  E  H         
----------------------|-----------------------|----------------------|
----------------------|-----------------------|----------------------|
----------3-----------|-----------3--5-----5--|----------3-----------|
----------------------|-----------------------|----------------------|
----------------------|-----------------------|----------------------|
----------------------|-----------------------|----------------------|


  H        E  E  E  E     Q    E  E  H           H        E  E  E  E   
-----------------------|----------------------|-----------------------|
-----------------------|----------------------|-----------------------|
-----------3--5-----5--|----------3-----------|-----------3--5-----5--|
-----------------------|----------------------|-----------------------|
-----------------------|----------------------|-----------------------|
-----------------------|----------------------|-----------------------|


  Q    E  E  H           H        E  E  E  E     Q    E  E  H         
----------------------|-----------------------|----------------------|
----------------------|-----------------------|----------------------|
----------3-----------|-----------3--5-----5--|----------3-----------|
----------------------|-----------------------|----------------------|
----------------------|-----------------------|----------------------|
----------------------|-----------------------|----------------------|


  H        E  E  E  E     Q    E  E  H           H        E  E  E  E   
-----------------------|----------------------|-----------------------|
-----------------------|----------------------|-----------------------|
-----------3--5-----5--|----------3-----------|-----------3--5-----5--|
-----------------------|----------------------|-----------------------|
-----------------------|----------------------|-----------------------|
-----------------------|----------------------|-----------------------|


  Q    E  E  H           H        E  E  E  E     Q    E  E  H         
----------------------|-----------------------|----------------------|
----------------------|-----------------------|----------------------|
----------3-----------|-----------3--5-----5--|----------3-----------|
----------------------|-----------------------|----------------------|
----------------------|-----------------------|----------------------|
----------------------|-----------------------|----------------------|


  H        E  E  E  E     Q    E  E  H           H        E  E  E  E   
-----------------------|----------------------|-----------------------|
-----------------------|----------------------|-----------------------|
-----------3--3-----3--|----------3-----------|-----------3--5-----5--|
-----------------------|----------------------|-----------------------|
-----------------------|----------------------|-----------------------|
-----------------------|----------------------|-----------------------|


  Q    E  E  H           H        E    E  E  E     Q.     E  H         
----------------------|-------------------------|---------------------|
----------------------|-------------------------|---------------------|
----------1-----------|--------------3g5-----3--|--L------3-----------|
----------------------|-------------------------|---------------------|
----------------------|-------------------------|---------------------|
----------------------|-------------------------|---------------------|


  H        Q    E  E     Q    E  E  H           H        E  E  E  E   
----------------------|----------------------|-----------------------|
----------------------|----------------------|-----------------------|
-------------------3--|----------3-----------|-----------3--3-----3--|
----------------------|----------------------|-----------------------|
----------------------|----------------------|-----------------------|
----------------------|----------------------|-----------------------|


  Q    E  E  H           H        E  E  E  E     Q    E  E  H         
----------------------|-----------------------|----------------------|
----------------------|-----------------------|----------------------|
----------3-----------|-----------3--5-----5--|----------3-----------|
----------------------|-----------------------|----------------------|
----------------------|-----------------------|----------------------|
----------------------|-----------------------|----------------------|


  H        E  E  E  E     W                                     
-----------------------|-------------------|-------------------|
-----------------------|-------------------|-------------------|
--------------3-----3--|-------------------|-------------------|
-----------------------|-------------------|-------------------|
-----------------------|-------------------|-------------------|
-----------------------|-------------------|-------------------|


-------------------|-------------------|-------------------|
-------------------|-------------------|-------------------|
-------------------|-------------------|-------------------|
-------------------|-------------------|-------------------|
-------------------|-------------------|-------------------|
-------------------|-------------------|-------------------|


  H        H           W                   H        H         
--------------------|-------------------|--------------------|
-----------3--------|--4----------------|--L--------6--------|
-----------3--------|--5----------------|--L--------7--------|
--------------------|--6----------------|--L--------8--------|
--------------------|-------------------|--------------------|
--------------------|-------------------|--------------------|


  W                   H        H           W                 
-------------------|--------------------|-------------------|
--4----------------|--L--------6--------|--4----------------|
--5----------------|--L--------7--------|--5----------------|
--6----------------|--L--------8--------|--6----------------|
-------------------|--------------------|-------------------|
-------------------|--------------------|-------------------|


  H        H           W                   H        H         
--------------------|-------------------|--------------------|
--L--------6--------|--4----------------|--L--------6--------|
--L--------7--------|--5----------------|--L--------7--------|
--L--------8--------|--6----------------|--L--------8--------|
--------------------|-------------------|--------------------|
--------------------|-------------------|--------------------|


  Q    Q    E  Q.        E  Q    E  Q.     E     Q    Q    E  Q    E   
----------------------|-----------------------|-----------------------|
-------3----L---------|-----3----L------------|-------3----L----------|
---------------5------|-------------5---------|---------------5-------|
----------------------|--5-----------------5--|--L-----------------5--|
----------------------|-----------------------|-----------------------|
----------------------|-----------------------|-----------------------|


  Q    Q    E  Q    E     Q    Q    E  Q    E     Q    Q    E  Q    E   
-----------------------|-----------------------|-----------------------|
-------3----L----------|-------1----L----------|-------1----L----------|
---------------5-------|---------------0-------|---------------0-------|
--L-----------------3--|--3-----------------3--|--L-----------------3--|
-----------------------|-----------------------|-----------------------|
-----------------------|-----------------------|-----------------------|


  Q    Q    E  Q    E     Q    E  E  E  E  E  E     Q    Q    E  Q    E   
-----------------------|-------------------------|-----------------------|
-------1----L----------|-------1--------------1--|--L--------------------|
---------------0-------|-------------------0-----|-------3----L----------|
--L-----------------3--|--3-------0--1--3--------|---------------3----1--|
-----------------------|-------------------------|-----------------------|
-----------------------|-------------------------|-----------------------|


  Q    Q    E  Q    E     Q    Q    E  Q    E     Q    Q    E  Q    E   
-----------------------|-----------------------|-----------------------|
-----------------------|-----------------------|-------3----L----------|
-------3----L----------|-------3----L----------|---------------5-------|
--L------------3----1--|--L------------3----1--|--L-----------------5--|
-----------------------|-----------------------|-----------------------|
-----------------------|-----------------------|-----------------------|


  Q    Q    E  Q    E     Q    Q    E  Q    E     Q    Q    H         
-----------------------|-----------------------|---------------------|
-------3----L----------|-------3----L----------|-------3-------------|
---------------5-------|---------------5-------|---------------------|
--L-----------------5--|--L-----------------5--|--L------------------|
-----------------------|-----------------------|---------------------|
-----------------------|-----------------------|---------------------|


  Q    E  E  H           H        E  E  E  E     Q    E  E  H         
----------------------|-----------------------|----------------------|
----------------------|-----------------------|----------------------|
----------3-----------|-----------3--5-----5--|----------3-----------|
----------------------|-----------------------|----------------------|
----------------------|-----------------------|----------------------|
----------------------|-----------------------|----------------------|


  H        E  E  E  E     Q    E  E  H           H        E  E  E  E   
-----------------------|----------------------|-----------------------|
-----------------------|----------------------|-----------------------|
-----------3--5-----5--|----------3-----------|-----------3--5-----5--|
-----------------------|----------------------|-----------------------|
-----------------------|----------------------|-----------------------|
-----------------------|----------------------|-----------------------|


  Q    E  E  H           H        E  E  E  E     Q    E  E  H         
----------------------|-----------------------|----------------------|
----------------------|-----------------------|----------------------|
----------3-----------|-----------3--5-----5--|----------3-----------|
----------------------|-----------------------|----------------------|
----------------------|-----------------------|----------------------|
----------------------|-----------------------|----------------------|


  H        E  E  E  E     Q    E  E  H           H        E  E  E  E   
-----------------------|----------------------|-----------------------|
-----------------------|----------------------|-----------------------|
-----------3--5-----5--|----------3-----------|-----------3--5-----5--|
-----------------------|----------------------|-----------------------|
-----------------------|----------------------|-----------------------|
-----------------------|----------------------|-----------------------|


  Q    E  E  H           H        E  E  E  E     Q    E  E  H         
----------------------|-----------------------|----------------------|
----------------------|-----------------------|----------------------|
----------3-----------|-----------3--5-----5--|----------3-----------|
----------------------|-----------------------|----------------------|
----------------------|-----------------------|----------------------|
----------------------|-----------------------|----------------------|


  H        E  E  E  E     Q    E  E  H           H        E  E  E  E   
-----------------------|----------------------|-----------------------|
-----------------------|----------------------|-----------------------|
-----------3--5-----5--|----------3-----------|-----------3--3-----3--|
-----------------------|----------------------|-----------------------|
-----------------------|----------------------|-----------------------|
-----------------------|----------------------|-----------------------|


  Q    E  E  H           H        E  E  E  E     Q    E  E  H         
----------------------|-----------------------|----------------------|
----------------------|-----------------------|----------------------|
----------3-----------|-----------3--5-----5--|----------1-----------|
----------------------|-----------------------|----------------------|
----------------------|-----------------------|----------------------|
----------------------|-----------------------|----------------------|


  H        E    E  E  E     Q.     E  H           H        Q    E  E   
-------------------------|---------------------|----------------------|
-------------------------|---------------------|----------------------|
--------------3g5-----3--|--L------3-----------|-------------------3--|
-------------------------|---------------------|----------------------|
-------------------------|---------------------|----------------------|
-------------------------|---------------------|----------------------|


  Q    E  E  H           H        E  E  E  E     Q    E  E  H         
----------------------|-----------------------|----------------------|
----------------------|-----------------------|----------------------|
----------3-----------|-----------3--3-----3--|----------3-----------|
----------------------|-----------------------|----------------------|
----------------------|-----------------------|----------------------|
----------------------|-----------------------|----------------------|


  H        E  E  E  E     Q    E  E  H           H        E  E  E  E   
-----------------------|----------------------|-----------------------|
-----------------------|----------------------|-----------------------|
-----------3--5-----5--|----------3-----------|--------------3-----3--|
-----------------------|----------------------|-----------------------|
-----------------------|----------------------|-----------------------|
-----------------------|----------------------|-----------------------|


  W                   Q    E  E  Q    E  E     Q    E  E  H         
-------------------|------------------------|----------------------|
-------------------|------------------------|----------------------|
-------------------|----------3-------3--3--|----------3-----------|
-------------------|------------------------|----------------------|
-------------------|------------------------|----------------------|
-------------------|------------------------|----------------------|


  H        E  E  E  E     Q    E  E  H           H        E  E  E  E   
-----------------------|----------------------|-----------------------|
-----------------------|----------------------|-----------------------|
-----------3--3-----3--|----------3-----------|-----------3--5-----5--|
-----------------------|----------------------|-----------------------|
-----------------------|----------------------|-----------------------|
-----------------------|----------------------|-----------------------|


  Q    E  E  H           H        E    E  E  E     Q.     E  H         
----------------------|-------------------------|---------------------|
----------------------|-------------------------|---------------------|
----------1-----------|--------------3g5-----3--|--L------3-----------|
----------------------|-------------------------|---------------------|
----------------------|-------------------------|---------------------|
----------------------|-------------------------|---------------------|


  H        Q    E  E     Q    E  E  H           H        E  E  E  E   
----------------------|----------------------|-----------------------|
----------------------|----------------------|-----------------------|
-------------------3--|----------3-----------|-----------3--3-----3--|
----------------------|----------------------|-----------------------|
----------------------|----------------------|-----------------------|
----------------------|----------------------|-----------------------|


  Q    E  E  H           H        E  E  E  E     Q    E  E  H         
----------------------|-----------------------|----------------------|
----------------------|-----------------------|----------------------|
----------3-----------|-----------3--5-----5--|----------3-----------|
----------------------|-----------------------|----------------------|
----------------------|-----------------------|----------------------|
----------------------|-----------------------|----------------------|


  H        E  E  E  E    
-----------------------||
-----------------------||
--------------3-----3--||
-----------------------||
-----------------------||
-----------------------||



=====================================================================
=====================================================================
=====================================================================


Guitar 2



     W                   W                   H        Q    E    E   
E||-------------------|-------------------|------------------------|
B||-------------------|-------------------|------------------------|
G||-------------------|-------------------|-------------------/12--|
D||-------------------|-------------------|------------------------|
A||-------------------|-------------------|------------------------|
E||-------------------|-------------------|------------------------|


   Q     E   E   Q      S   S E      W                    W                 
---------------------------------|---------------------|-------------------|
--------11-----------------------|---------------------|-------------------|
---L--------10---L~--------------|---------------------|-------------------|
-----------------------12s-10-8--|--10~----------------|-------------------|
---------------------------------|---------------------|-------------------|
---------------------------------|---------------------|-------------------|


  W                   Q    E  E  Q      E   E     Q     E  E  Q    E   E   
-------------------|-------6-------------------|--------------------------|
-------------------|-------6--8--8~------------|--------------------------|
-------------------|----------8--8~------------|--8----10--7--L----8------|
-------------------|-------------------10p--8--|----------------------10--|
-------------------|---------------------------|--------------------------|
-------------------|---------------------------|--------------------------|


   E   E   H         E  E     Q     E  E  Q    E   E   
---------------------------|--------------------------|
---------------------------|--------------------------|
------------------------7--|--8----10--7--L----8------|
---L---L\-----------10-----|----------------------10--|
---------------------------|--------------------------|
---------------------------|--------------------------|


   E   E   H         E  E     Q     E  E  Q    E   E   
---------------------------|--------------------------|
---------------------------|--------------------------|
------------------------7--|--8----10--7--L----8------|
---L---L\-----------10-----|----------------------10--|
---------------------------|--------------------------|
---------------------------|--------------------------|


   E   E   H         E  E     Q     E  E  Q    E   E   
---------------------------|--------------------------|
---------------------------|--------------------------|
------------------------7--|--8----10--7--L----8------|
---L---L\-----------10-----|----------------------10--|
---------------------------|--------------------------|
---------------------------|--------------------------|


   E   E   H        Q       Q    E  Q    E  Q       E  Q    E  Q    E  E   
-------------------------|-----------------------|------------------------|
-------------------------|-------8-------6-------|--8-------6-------4--6--|
-------------------------|-------8-------8-------|--8-------8-------5--5--|
---L---L\----------------|-----------------------|------------------------|
-------------------------|-----------------------|------------------------|
-------------------------|-----------------------|------------------------|


  Q    E  Q    E  Q       E  Q    E  Q     E  E     Q    E  Q    E  Q     
-----------------------|--6----------------------|-----------------------|
-------8-------6-------|--6----------------------|-------8-------6-------|
-------8-------8-------|----------8--L----10-----|-------8-------8-------|
-----------------------|----------8--L-----8-----|-----------------------|
-----------------------|-------------------------|-----------------------|
-----------------------|-------------------------|-----------------------|


   E  Q    E  Q    E  E     Q    E  Q    E  Q       Q.     Q    E  E   E   
-------------------------|-----------------------|------------------------|
---9---------------------|-------8-------6-------|--9------6----L---------|
--10-------8--L----7--8--|-------8-------8-------|--8------8----L---------|
-----------8--L----8--8--|-----------------------|--8------8----L--8--10--|
-------------------------|-----------------------|-----------------8--10--|
-------------------------|-----------------------|------------------------|


  W                   W                   W                   W                 
-------------------|-------------------|-------------------|-------------------|
-------------------|-------------------|-------------------|-------------------|
-------------------|-------------------|-------------------|-------------------|
-------------------|-------------------|-------------------|-------------------|
-------------------|-------------------|-------------------|-------------------|
-------------------|-------------------|-------------------|-------------------|


  W                   W                   W                   W                 
-------------------|-------------------|-------------------|-------------------|
-------------------|-------------------|-------------------|-------------------|
-------------------|-------------------|-------------------|-------------------|
-------------------|-------------------|-------------------|-------------------|
-------------------|-------------------|-------------------|-------------------|
-------------------|-------------------|-------------------|-------------------|


  W                   W                   W                   W                 
-------------------|-------------------|-------------------|-------------------|
-------------------|-------------------|-------------------|-------------------|
-------------------|-------------------|-------------------|-------------------|
-------------------|-------------------|-------------------|-------------------|
-------------------|-------------------|-------------------|-------------------|
-------------------|-------------------|-------------------|-------------------|


  W                   W                   W                   W                 
-------------------|-------------------|-------------------|-------------------|
-------------------|-------------------|-------------------|-------------------|
-------------------|-------------------|-------------------|-------------------|
-------------------|-------------------|-------------------|-------------------|
-------------------|-------------------|-------------------|-------------------|
-------------------|-------------------|-------------------|-------------------|


  Q.     E  H           W                   Q.     E  H         
---------------------|-------------------|---------------------|
--9------8--L--------|--L----------------|--6------6--L--------|
--8------8--L--------|--L----------------|--8------7--L--------|
--8------8--L--------|--L----------------|--8------8--L--------|
---------------------|-------------------|---------------------|
---------------------|-------------------|---------------------|


  Q.     E  Q    Q       Q.     E   H           W                 
----------------------|----------------------|-------------------|
--L---------6---------|----------------------|-------------------|
--L---------7---------|----------------------|-------------------|
--L---------8---------|--3-------------------|-------------------|
----------------------|---------6~--L--------|--L----------------|
----------------------|----------------------|-------------------|


  Q.     E  H           Q.     E  Q    E  E     Q.     E  H         
---------------------|-----------------------|---------------------|
---------------------|-----------------------|--9------8--L--------|
---------------------|---------3-------3--3--|--8------8--L--------|
--3------3--L--------|--L------3-------3--3--|--8------8--L--------|
--3------3--L--------|--L--------------------|---------------------|
---------------------|-----------------------|---------------------|


  W                   Q.     E  H           Q.     E  Q    Q     
-------------------|---------------------|----------------------|
--L----------------|--6------6--L--------|--L---------6---------|
--L----------------|--8------7--L--------|--L---------7---------|
--L----------------|--8------8--L--------|--L---------8---------|
-------------------|---------------------|----------------------|
-------------------|---------------------|----------------------|


  Q.     E   H           W                   Q.     E  H         
----------------------|-------------------|---------------------|
----------------------|-------------------|---------------------|
----------------------|-------------------|---------------------|
--3-------------------|-------------------|--3------3--L--------|
---------6~--L--------|--L----------------|--3------3--L--------|
----------------------|-------------------|---------------------|


  W                   E   E   E   E  Q     E   E     W                 
-------------------|-----15--13--11-------13--11--|-------------------|
-------------------|-----15--13--11-------13--11--|-------------------|
-------------------|------------------------------|-------------------|
--L----------------|------------------------------|-------------------|
--L----------------|------------------------------|-------------------|
-------------------|------------------------------|-------------------|


  Q    E   E   Q     E   E       Q.       E   H         
-----------------------------|-------------------------|
--------------------11-------|-------------------------|
-------x--12---L--------10~--|---L---------------------|
-----------------------------|-------------------------|
-----------------------------|----------/13---L--------|
-----------------------------|-------------------------|


  E   E   E   E  Q     E   E     W                   Q     Q    Q     Q     
-----15--13--11-------13--11--|-------------------|--8----------8----------|
-----15--13--11-------13--11--|-------------------|-------11---------11----|
------------------------------|-------------------|------------------------|
------------------------------|-------------------|------------------------|
------------------------------|-------------------|------------------------|
------------------------------|-------------------|------------------------|


  Q     Q    Q     Q       W                   W                 
--8----------8----------|-------------------|-------------------|
-------11---------11----|-------------------|-------------------|
------------------------|-------------------|-------------------|
------------------------|-------------------|-------------------|
------------------------|-------------------|-------------------|
------------------------|-------------------|-------------------|


  W                   W                   W                   W                 
-------------------|-------------------|-------------------|-------------------|
-------------------|-------------------|-------------------|-------------------|
-------------------|-------------------|-------------------|-------------------|
-------------------|-------------------|-------------------|-------------------|
-------------------|-------------------|-------------------|-------------------|
-------------------|-------------------|-------------------|-------------------|


  W                   W                   W                   W                 
-------------------|-------------------|-------------------|-------------------|
-------------------|-------------------|-------------------|-------------------|
-------------------|-------------------|-------------------|-------------------|
-------------------|-------------------|-------------------|-------------------|
-------------------|-------------------|-------------------|-------------------|
-------------------|-------------------|-------------------|-------------------|


  W                   W                   W                   W                 
-------------------|-------------------|-------------------|-------------------|
-------------------|-------------------|-------------------|-------------------|
-------------------|-------------------|-------------------|-------------------|
-------------------|-------------------|-------------------|-------------------|
-------------------|-------------------|-------------------|-------------------|
-------------------|-------------------|-------------------|-------------------|


  W                   W                   Q.     E  H         
-------------------|-------------------|---------------------|
-------------------|-------------------|--9------8--L--------|
-------------------|-------------------|--8------8--L--------|
-------------------|-------------------|--8------8--L--------|
-------------------|-------------------|---------------------|
-------------------|-------------------|---------------------|


  W                   Q.     E  H           Q.     E  Q    Q     
-------------------|---------------------|----------------------|
--L----------------|--6------6--L--------|--L---------6---------|
--L----------------|--8------7--L--------|--L---------7---------|
--L----------------|--8------8--L--------|--L---------8---------|
-------------------|---------------------|----------------------|
-------------------|---------------------|----------------------|


  Q.     E   H           W                   Q.     E  H         
----------------------|-------------------|---------------------|
----------------------|-------------------|---------------------|
----------------------|-------------------|---------------------|
--3-------------------|-------------------|--3------3--L--------|
---------6~--L--------|--L----------------|--3------3--L--------|
----------------------|-------------------|---------------------|


  Q.     E  Q    E  E     Q.     E  H           W                 
-----------------------|---------------------|-------------------|
-----------------------|--9------8--L--------|--L----------------|
---------3-------3--3--|--8------8--L--------|--L----------------|
--L------3-------3--3--|--8------8--L--------|--L----------------|
--L--------------------|---------------------|-------------------|
-----------------------|---------------------|-------------------|


  Q.     E  H           Q.     E  Q    Q       Q.     E   H         
---------------------|----------------------|----------------------|
--6------6--L--------|--L---------6---------|----------------------|
--8------7--L--------|--L---------7---------|----------------------|
--8------8--L--------|--L---------8---------|--3-------------------|
---------------------|----------------------|---------6~--L--------|
---------------------|----------------------|----------------------|


  W                   Q.     E  H                                             
-------------------|---------------------|-----------|-----------|-----------|
-------------------|---------------------|-----------|-----------|-----------|
-------------------|---------------------|-----------|-----------|-----------|
-------------------|--3------3--L--------|-----------|-----------|-----------|
--L----------------|--3------3--L--------|-----------|-----------|-----------|
-------------------|---------------------|-----------|-----------|-----------|


-----------|-----------|-----------|-----------|-----------|-----------|
-----------|-----------|-----------|-----------|-----------|-----------|
-----------|-----------|-----------|-----------|-----------|-----------|
-----------|-----------|-----------|-----------|-----------|-----------|
-----------|-----------|-----------|-----------|-----------|-----------|
-----------|-----------|-----------|-----------|-----------|-----------|


-----------|-----------|-----------|-----------|-----------|-----------|
-----------|-----------|-----------|-----------|-----------|-----------|
-----------|-----------|-----------|-----------|-----------|-----------|
-----------|-----------|-----------|-----------|-----------|-----------|
-----------|-----------|-----------|-----------|-----------|-----------|
-----------|-----------|-----------|-----------|-----------|-----------|


-----------|-----------|-----------|-----------|-----------|-----------|
-----------|-----------|-----------|-----------|-----------|-----------|
-----------|-----------|-----------|-----------|-----------|-----------|
-----------|-----------|-----------|-----------|-----------|-----------|
-----------|-----------|-----------|-----------|-----------|-----------|
-----------|-----------|-----------|-----------|-----------|-----------|


-----------|-----------|-----------|-----------|-----------|-----------|
-----------|-----------|-----------|-----------|-----------|-----------|
-----------|-----------|-----------|-----------|-----------|-----------|
-----------|-----------|-----------|-----------|-----------|-----------|
-----------|-----------|-----------|-----------|-----------|-----------|
-----------|-----------|-----------|-----------|-----------|-----------|


              W                   W                   W                 
-----------|-------------------|-------------------|-------------------|
-----------|-------------------|-------------------|-------------------|
-----------|-------------------|-------------------|-------------------|
-----------|-------------------|-------------------|-------------------|
-----------|-------------------|-------------------|-------------------|
-----------|-------------------|-------------------|-------------------|


  W                   W                   W                   W                 
-------------------|-------------------|-------------------|-------------------|
-------------------|-------------------|-------------------|-------------------|
-------------------|-------------------|-------------------|-------------------|
-------------------|-------------------|-------------------|-------------------|
-------------------|-------------------|-------------------|-------------------|
-------------------|-------------------|-------------------|-------------------|


  W                   W                   W                   W                 
-------------------|-------------------|-------------------|-------------------|
-------------------|-------------------|-------------------|-------------------|
-------------------|-------------------|-------------------|-------------------|
-------------------|-------------------|-------------------|-------------------|
-------------------|-------------------|-------------------|-------------------|
-------------------|-------------------|-------------------|-------------------|


  W                   W                   W                   W                 
-------------------|-------------------|-------------------|-------------------|
-------------------|-------------------|-------------------|-------------------|
-------------------|-------------------|-------------------|-------------------|
-------------------|-------------------|-------------------|-------------------|
-------------------|-------------------|-------------------|-------------------|
-------------------|-------------------|-------------------|-------------------|


  W                   Q.     E  H           W                 
-------------------|---------------------|-------------------|
-------------------|--9------8--L--------|--L----------------|
-------------------|--8------8--L--------|--L----------------|
-------------------|--8------8--L--------|--L----------------|
-------------------|---------------------|-------------------|
-------------------|---------------------|-------------------|


  Q.     E  H           Q.     E  Q    Q       Q.     E   H         
---------------------|----------------------|----------------------|
--6------6--L--------|--L---------6---------|----------------------|
--8------7--L--------|--L---------7---------|----------------------|
--8------8--L--------|--L---------8---------|--3-------------------|
---------------------|----------------------|---------6~--L--------|
---------------------|----------------------|----------------------|


  W                   Q.     E  H           Q.     E  Q    E  E   
-------------------|---------------------|-----------------------|
-------------------|---------------------|-----------------------|
-------------------|---------------------|---------3-------3--3--|
-------------------|--3------3--L--------|--L------3-------3--3--|
--L----------------|--3------3--L--------|--L--------------------|
-------------------|---------------------|-----------------------|


  Q.     E  H           W                   Q.     E  H         
---------------------|-------------------|---------------------|
--9------8--L--------|--L----------------|--6------6--L--------|
--8------8--L--------|--L----------------|--8------7--L--------|
--8------8--L--------|--L----------------|--8------8--L--------|
---------------------|-------------------|---------------------|
---------------------|-------------------|---------------------|


  Q.     E  Q    Q       Q.     E   H           W                 
----------------------|----------------------|-------------------|
--L---------6---------|----------------------|-------------------|
--L---------7---------|----------------------|-------------------|
--L---------8---------|--3-------------------|-------------------|
----------------------|---------6~--L--------|--L----------------|
----------------------|----------------------|-------------------|


  Q.     E  H           Q    E  E  Q    E  E     Q.     E  H         
---------------------|------------------------|---------------------|
---------------------|------------------------|--9------8--L--------|
---------------------|------------------------|--8------8--L--------|
--3------3--L--------|--L----3--3-------3--3--|--8------8--L--------|
--3------3--L--------|--L----3--3-------3--3--|---------------------|
---------------------|------------------------|---------------------|


  W                   Q.     E  H           Q.     E  Q    Q     
-------------------|---------------------|----------------------|
--L----------------|--6------6--L--------|--L---------6---------|
--L----------------|--8------7--L--------|--L---------7---------|
--L----------------|--8------8--L--------|--L---------8---------|
-------------------|---------------------|----------------------|
-------------------|---------------------|----------------------|


  Q.     E   H           W                   Q.     E  H         
----------------------|-------------------|---------------------|
----------------------|-------------------|---------------------|
----------------------|-------------------|---------------------|
--3-------------------|-------------------|--3------3--L--------|
---------6~--L--------|--L----------------|--3------3--L--------|
----------------------|-------------------|---------------------|


  Q.     E  Q    E  E     Q.     E  H           W                 
-----------------------|---------------------|-------------------|
-----------------------|--9------8--L--------|--L----------------|
---------3-------3--3--|--8------8--L--------|--L----------------|
--L------3-------3--3--|--8------8--L--------|--L----------------|
--L--------------------|---------------------|-------------------|
-----------------------|---------------------|-------------------|


  Q.     E  H           Q.     E  Q    Q       Q.     E   H         
---------------------|----------------------|----------------------|
--6------6--L--------|--L---------6---------|----------------------|
--8------7--L--------|--L---------7---------|----------------------|
--8------8--L--------|--L---------8---------|--3-------------------|
---------------------|----------------------|---------6~--L--------|
---------------------|----------------------|----------------------|


  W                  
-------------------||
-------------------||
-------------------||
-------------------||
--L----------------||
-------------------||




Duration Legend
---------------
W - whole
H - half
Q - quarter
E - 8th
S - 16th
T - 32nd
X - 64th
. - note dotted
|-n-|  - n-tuplets


Tablature Legend
----------------
L - tied note
x - dead note
g - grace note
(n) - ghost note
> - accentuded note
NH - natural harmonic
AH - artificial harmonic
TH - tapped harmonic
SH - semi harmonic
PH - pitch harmonic
h - hammer on
p - pull off
b - bend
br - bendRelease
pb - preBend
pbr - preBendRelease
brb - bendReleaseBend
\n/ - tremolo bar dip
\n - tremolo bar dive
-/n - tremolo bar Release up
/n\ - tremolo bar inverted dip
/n - tremolo bar return
-\n - tremolo bar Release down
S - shift slide
s - legato slide
/ -  slide into from below or out of upwards
\ -  slide into from above or out of downwards
~ - vibrato
W - wide vibrato
tr - trill
TP - tremolo picking
T - tapping
S - slap
P - pop
< - fade in
^ - brush up
v - brush down
comments
We did not receive enough feedback on this tab! Please rate:
1 2 3 4 5
I want to post or [tab]
guest
You may want to rate the tab now too:
select rating
Please do not post tabs as comments. Select "correction" instead!